Rise against

Solo disponible en BuenasTareas
  • Páginas : 2 (476 palabras )
  • Descarga(s) : 0
  • Publicado : 4 de marzo de 2012
Leer documento completo
Vista previa del texto
Rise against-prayer of the refugee
Drop D tuning

The intro is with help from my brother.

Intro/part of verse
e----------------------------------|
b--7--6-6---7-7---6-6---7-7---6-6--|g--8--8-8---8-8---8-8---8-8---8-8--|
d----------------------------------|
a----------------------------------|
d----------------------------------|
repeat as nessesary

this is the last note hehits before adding distortion (I think)
e-------|
b--4-4--|
g--6-6--|
d-------|
a-------|
d-------|

Distorted part of verse
e-----------------------------------|b-----------------------------------|
g----------4--4-4---6--6-6----------|
d-1--1-1---4--4-4---6--6-6---6--6-6-|
a-1--1-1---2--2-2---4--4-4---6--6-6-|
d-1--1-1---------------------6--6-6-|e-----------------------------|
b-----------------------------|
g----------4--4-4-------------|
d-1--1-1---4--4-4---4--4-4--1-|
a-1--1-1---2--2-2---4--4-4--1-|
d-1--1-1------------4--4-4--1-|

Here's the awesome choruse---------------------------------|
b---------------------------------|
g------------------6-------4------|end on 4
d-1-------4--------6--x16--4--x16-| 4a-1-x16---4--x16---4-------2------| 2
d-1-------4-----------------------|

verse (sorry I don't know the sliding stuff he does in the backround)
chorus

Bridge
e------------------------------------------|b------------------------------------------|
g------------------------------------------|
d--6-6666666666666666---4-4444444444444444-|x3
a--6-6666666666666666---4-4444444444444444-|d--6-6666666666666666---4-4444444444444444-|
................ ............ ..

e------------------------------------------|
b------------------------------------------|g------------------------------------------|
d--2-2222222222222222---1-1111111111111111-|
a--2-2222222222222222---1-1111111111111111-|
d--2-2222222222222222---1-1111111111111111-|
................ ...................
tracking img