Saber

Solo disponible en BuenasTareas
  • Páginas : 6 (1483 palabras )
  • Descarga(s) : 0
  • Publicado : 19 de agosto de 2012
Leer documento completo
Vista previa del texto
INTRO:
e|------------15----14-/-------------15----14-
B|---15----------------/----15----------------
G|------14-12----14----/-------14-12----14----
D|12-------------------/-12-------------------
A|---------------------/----------------------
E|---------------------/----------------------

e|------------15----14-/-------------15----14-
B|---15----------------/----15----------------G|------14-12----14----/-------14-12----14----
D|14-------------------/-14-------------------
A|---------------------/----------------------
E|---------------------/----------------------

e|------------15----14-/-------------15----14-
B|---15----------------/----15----------------
G|12------14-12----14--/-12----14-12----14----
D|---------------------/----------------------A|---------------------/----------------------
E|---------------------/----------------------

e|------------15----14-/-------------15----14-
B|---15----------------/----15----------------
G|------14-12----14----/-------14-12----14----
D|12-------------------/-12-------------------
A|---------------------/----------------------
E|---------------------/----------------------

[repite todo lo anterior 2veces más]

___________________________________________________





VERSO 1:

"She's got a smile that it seems to me
reminds me my childhodd, memories
where everything was as fresh as the bright blues skies (skies!)"


e|10----------------------8--10--8-------------
B|10----------------------8---------8----------
G|11----------------------9--------------------D|12----------------------10-------------------
A|---------------------------------------------
E|---------------------------------------------

e|3-3-----5--3--------------------------------0-
B|3---3---------3---------3-3-3-3-3-3-3-3-3-3-3-
G|4-----4-----------------2-2-2-2-2-2-2-2-2-2-2-
D|5-------------------------------------------0-
A|----------------------------------------------E|----------------------------------------------

















VERSO 2:

"Now and then when I see her face,
She takes me away to that special place,
and if I stay to long I'd probably break down, (and cry!)"

e|2--3-2------------------------------------0---0-1-0
B|3------3----------------------------2-------2------
G|2--------2-----------------------0----0------------D|0------------------------------2--------2----------
A|------------------------0-2-3----------------------
E|---------------------------------------------------


e|2-----------------------0--2--2--2--------------
B|2-----------------------3--3--3--3--------------
G|0-----------------------2--2--2--2--------------
D|0-----------------------0--0--0--0--------------A|2----3-2----------------------------------------
E|3--3-----3--------------------------------------

_________________________________________________________















ESTRIBILLO:

"Ooooh ooh oh Sweet child o' mine
Ohh-ohh-ohh-ohh sweet love of mine..."

e|-----------------------/------------13----12----
B|14-14-------15----15---/13-13-------------------
G|------14-------14------/------12-10----12----12-D|---------14------------/------------------------
A|-----------------------/------------------------
E|-----------------------/------------------------

e|------------15----14-/-------------15----14-
B|---15----------------/----15----------------
G|------14-12----14----/-------14-12----14----
D|12-------------------/-12-------------------
A|---------------------/----------------------E|---------------------/----------------------


e|-----------------------/---------13-13----13-----------10---12b-12b10----------------|
B|14-14-------15----15---/13-13-----------------------------------------------------------|
G|------14-------14------/------12-------12----12-----11--------------------------|
D|---------14------------/-------------------------------------------------------|...
tracking img