Sexa

Solo disponible en BuenasTareas
  • Páginas : 7 (1627 palabras )
  • Descarga(s) : 0
  • Publicado : 18 de noviembre de 2012
Leer documento completo
Vista previa del texto
Intro: F C Dm C F C Dm
E-----------------------------------------------|
B-----10--10--10--10--10----5-5/6--6--6-6-6/5---|
G-----------------------------------------------|
D-----------------------------------------------|
A---8---8---8---8---8-------3-3/5--5-5-5-5/3----|
E-----------------------------------------------|

E-----------------------------------------------|B-----10--10--10--10--10--8--5/6---6p8-6p8------|
G-----------------------------------------------|
D-----------------------------------------------|
A----8---8---8---8---8-------3/5----------------|
E-----------------------------------------------|

F
Scar tissue that I wish you saw
Dm
Sarcastic mister know it all
F
Close your eyes and I’ll kiss you ’cause
Dm
With the birds I’llshare

F
With the birds I’ll share
Dm
This lonely view
F
With the birds I’ll share
Dm

F
Push me up against the wall
Dm
Young Kentucky girl in a push-up bra
F
Fallin’ all over myself
Dm
To lick your heart and taste your health ’cause

F
With the birds I’ll share
Dm
This lonely view
F
With the birds I’ll share
Dm
This lonely view

FBlood loss in a bathroom stall
Dm
Southern girl with a scarlet drawl
F
Wave goodbye to ma and pa ’cause
Dm
With the birds I’ll share

F
With the birds I’ll share
Dm
This lonely view
F
With the birds I’ll share
Dm
This lonely view

F
Soft spoken with a broken jaw
Dm
Step outside but not to brawl
F
Autumn’s sweet we call it fall
Dm
I’ll make it tothe moon if I have to crawl and

F
With the birds I’ll share
Dm
This lonely view
F
With the birds I’ll share
Dm
This lonely view

F
Scar tissue that I wish you saw
Dm
Sarcastic mister know it all
F
Close your eyes and I’ll kiss you ’cause
Dm
With the birds I’ll share

F
With the birds I’ll share
Dm
This lonely view
F
With the birdsI’ll share
Dm
This lonely view

D F#

e-------------------------------------------------------------------|
B--3-------3*---------------2---------------------------------------|
G------2-----2----------------------3*------------------------------|
D----4---4----------------------4-----4----4--2---------------------|A--5------------4--2----------4---4--------------5-4-2--------------|
E--------------------5--4---2---------------------------------------|
D F#
e------------------------------------------------------------------|
B-3---------------3-h-5-p-3----------------------------------------|
G------------2---------------2-------------------3-----------------|D-------4------------------------4/6-6\-------4----4---4--2--------|
A-4-h-5---5----5-----------------5/7 7\-----4---4-----------5--4-2-|
E----------------------------------------2-------------------------|
D F#
e------------------------------------------------------------|
B-3------------3*-------------2------------------------------|
G----------2------2-------------------3*---------------------|D-------4----4--------------------4-4---4---4-2--------------|
A-4-h-5--5------------4-2-------4---------------5---4--2-----|
E-------------------------5-4-2------------------------------|
D F#
e------------------------------------------------------------|
B-3-------------3-h-5-p-3------------------------------------|G-----------2-------------2----------------3---3-------------|
D-------4-------------------4/6-6\------4----4---4-----------|
A-4-h-5---5-----------------5/7-7\----4--4-----4---4/7-------|
E-----------------------------------2------------------------|

Verse - Plectrum
E B C#m G#m A
e|----------------------------------------------------------|
B|----9--x--7----x---------9----4----5----------------------|...
tracking img