Su veneno

Solo disponible en BuenasTareas
  • Páginas : 7 (1581 palabras )
  • Descarga(s) : 4
  • Publicado : 21 de octubre de 2009
Leer documento completo
Vista previa del texto
1.- Les ordeno los diagramas de esta forma:
- Acorde
- [ Tecnica ]
- Diagrama
- Letra de la canción

2.- Símbolos (Para los que son nuevos en esto del ASCII):

s - Slida (glisado/deslizar la cuerda haciaadelante o hacia atras)
h - Hammer on (martilleo)
p - Pull Off (jalar la cuerda hacia abajo)
//// - Punteos alternos rápidos (arriba y abajo)
PM - Palm Mute (notas ahogadas)
() - Nota que se toca muy suave
[>>>>] - Tocar rápido


3.- Traté lomás que pude de hacer coincidir los diagramas con la letra,
para que sea mas entendible.

4.- Les aconsejo que analicen la canción de acuerdo con
esta transcripción, para cualquier duda que tengan.

5.- En la parte de "GUITARRAS ACUSTICAS",
el diagrama de la GUITARRA 1 y el de la GUITARRA 2van al mismo tiempo.




[ INTRO ]
Am

E||-12-12-12-12s10--10-10s8--8-|-10s12----12-12-12-12s10--10-10s8--8---|
B||----------------------------|---------------------------------------|G||----------------------------|---------------------------------------|
D||----------------------------|---------------------------------------|
A||----------------------------|---------------------------------------|
E||----------------------------|---------------------------------------|

Dm|-12s13----13-13-13-13s12--12-12s10--10--|
|----------------------------------------|
|----------------------------------------|
|----------------------------------------|
|----------------------------------------|
|----------------------------------------|

G|-13----15-15-15-15---13--12------13-|
|-----------------------------15-----|
|------------------------------------|
|------------------------------------|
|------------------------------------|
|------------------------------------|

C E7|13--12h13h12-------12-------------------------------|
|----------------15---15-13-12-----12---------12-----|
|-------------------------------14----14---13----14--|
|----------------------------------------------------|
|----------------------------------------------------||----------------------------------------------------|


|---17--------------------------------------------|
|--------17---------------------------------------|
|-------------17---14--------14-------------------|
|----------------------14-------14----------------|
|----------------------------------15-14-13-12----||-------------------------------------------------|





En el proceso de...



Am Am A7

|-------5----5-------8-----------|-----5------------------------|...
tracking img