Tablaturas musica ii caifanes

Solo disponible en BuenasTareas
  • Páginas : 10 (2439 palabras )
  • Descarga(s) : 0
  • Publicado : 15 de agosto de 2012
Leer documento completo
Vista previa del texto
Gtr I (E A D G) - 'Bajo' VIENTO CAIFANES

Q=126
4/4
Gtr I
W W W W
|----------|----------|----------|------|
|----------|----------|----------|------|
|----------|----------|----------|------||----------|----------|----------|------|


W W W W
|----------|----------|----------|------|
|----------|----------|----------|------|
|----------|----------|----------|------|
|----------|----------|----------|------|Q Q H +E E +S E. Q Q E E +Q H E E +Q H
|------------|-----------------2--|---------------|---------------|
|-0--0--0----|-(0)-0-(0)-2--4-----|---------------|---------------|
|------------|--------------------|-2-2-(2)--2----|----------0----||------------|--------------------|---------------|-3-3-(3)-------|


Q Q H +E E +S E. Q Q E E +Q H E E +Q H
|------------|--------------------|---------------|---------------|
|------------|-----------------7--|---------------|---------------|
|-5--5--5----|-(5)-5-(5)-7--9-----|---------------|----------0----||------------|--------------------|-7-7-(7)--7----|-3-3-(3)-------|


Q Q H +E E +S E. Q Q E E +Q H E E +Q H
|------------|--------------------|---------------|---------------|
|------------|-----------------7--|---------------|---------------||-5--5--5----|-(5)-5-(5)-7--9-----|---------------|----------0----|
|------------|--------------------|-7-7-(7)--7----|-3-3-(3)-------|


Q Q H +E E +S E. Q Q E E +Q H E E +Q H
|------------|--------------------|---------------|---------------||------------|-----------------7--|---------------|---------------|
|-5--5--5----|-(5)-5-(5)-7--9-----|---------------|----------0----|
|------------|--------------------|-7-7-(7)--7----|-3-3-(3)-------|


Q Q H +E E +S E. Q Q E E +Q H E E +Q H
|------------|--------------------|---------------|---------------||------------|-----------------7--|---------------|---------------|
|-5--5--5----|-(5)-5-(5)-7--9-----|---------------|----------0----|
|------------|--------------------|-7-7-(7)--7----|-3-3-(3)-------|


Q Q H +E E +S E. Q Q E E +Q H E E +Q H|------------|--------------------|---------------|---------------|
|------------|-----------------7--|---------------|---------------|
|-5--5--5----|-(5)-5-(5)-7--9-----|---------------|----------0----|
|------------|--------------------|-7-7-(7)--7----|-3-3-(3)-------|


Q Q H +E E +S E. Q Q E E +Q H E E +Q H|------------|--------------------|---------------|---------------|
|------------|-----------------7--|---------------|---------------|
|-5--5--5----|-(5)-5-(5)-7--9-----|---------------|----------0----|
|------------|--------------------|-7-7-(7)--7----|-3-3-(3)-------|


Q...
tracking img