Tablaturas

Solo disponible en BuenasTareas
  • Páginas : 5 (1111 palabras )
  • Descarga(s) : 0
  • Publicado : 6 de marzo de 2011
Leer documento completo
Vista previa del texto
E-------------16-14-------11----------|------16-14--------
B----------12-------11-11----12-11-12-|---12--------------
G-------13----------------------------|13----------13-----
D-------------------------------------|-------------------A-------------------------------------|-------------------
E-------------------------------------|-------------------

Intro 2
E-------------16-14----|------16-14-------
B----------12-------11-|---12-------------
G-------13-------------|13----------13----D----------------------|------------------
A----------------------|------------------
E----------------------|------------------

Solo 1
Solo 1 (E,F#,G#m,B,E over the top)
e--------11-11-11-11-11-11-11-11-11-11-11-11-11-11-11----b-----------------------------------------------------7-9
lo que sigue
e-------------16-14----|------16-14-------
b----------12-------11-|---12-------------
g-------13-------------|13----------13----

antes del segundo solo
: ----0-0-0-0-0-0-0-0-2-2-2-4-4-4-4-7-7-7-7-7-7-7-0-0-0-0-0-0-0-0x2)

: ----0-0-0-0-0-0-0-0-2-2-2-4-4-4-4-7-7-7-7-7-7-7-0-0-0-0-0-0-0-0 x2)

Segundo solo
x 2
e--------11-11-11-11-11-11-11-11-11-11-11-11-11-11-11-----
b-----------------------------------------------------7-9-e--------14-14-14-14-14-14-14-14-14-14-14-14-14-14-14------
b------------------------------------------------------7-


When you were you - the killers


E F# G#m
You sit there in your heart-ache
B E
Waiting on somebeautiful boy to
E F# G#m
To save you from your old ways
B
You play forgiveness
E
Watch it now here he comes


E F# G#m
He doesnt look a thing like Je-susB
But he talks like a gentleman
E
Like you imagined
F# G#m
When you*were young
B E


E
Can we climb this mountainF# G#m
I dont know
B E
Higher now than ever before
E F# G#m
I know we can make it if we take it slow
B
Let's take it easy
E
Easy now, watch it goE F# G#m
We're burning down the highway sky-line
B
On the back of a hurricane
E
That started turning
F# G#m B E
When you*were young...
tracking img