Under the bridge tab

Solo disponible en BuenasTareas
  • Páginas : 5 (1116 palabras )
  • Descarga(s) : 0
  • Publicado : 6 de marzo de 2012
Leer documento completo
Vista previa del texto
Under the Bridge Red hot chili pepper

Intro (without Capo)
e:-------------------------------------------------------------------|
B:3-----------3--------------2--------------------------------------2|
G:------2--------2-----------------------3---------------------------|D:---4-----4--------4-2------------4--------4--4-2------------4------|
A:5---------------------5-4-----4-----4-------------5-2--4/5-----5---|
E:---------------------------2---------------------------------------|




H Pe:-------------------------------------------------------------------|
B:-----3-5-3-------------2-------------------------------------------|
G:------------2----------------------3-------------------------2-----|
D:---------------4/6--6--------4--------4--4-2-----------4--------4--|
A:--5------------5/7--7-----4-----4------------5-2--4/5-----5--------|E:-----------------------2-------------------------------------------|




H P
e:-------------------------------------------------------------------|B:3---------------------------------------------------------3-5-3----|
G:---2---------------------3--------------------------2------------2-|
D:-------------------4--------4--4-2------------4--------4-----------|
A:------4-2-------4-----4-------------5-2--4/5-----5-----------------|
E:-----------5-4-----------------------------------------------------|e:-----------------------------------------|
B:-----------------------------------------|
G:---------------------3--------3----------|
D:-4/6--6--------4--------4--------4-------|A:-5/7--7-----4-----4--------4--------4----|
E:---------2-------------------------------|


Part I

E B C#m G#m A E B C#m A
e:---------------9--9------------------------------|
B:---------------9--9------------------------------|G:-13--8---------9--9---4---6-------13--8--9---6---|
D:-14--9--10/11---------6---7-------14--9--11--7---|
A:-14--9--10/11---------6---7-------14--9--11--7---|
E:-12--7---8/9----------4---5-------12--7--9---5---|




Emaj7e:-repeat-Part-I,----7--------|
B:-put-play-just-----9--------|
G:-C#m,-without------8--------|
D:-slide-and-upper---9--------|
A:-strings-----------7--------|
E:-------------------7--------|




Part II H PH P
e:----12-12-----7----------------------------------5-7-5-------------|
B:----12-12-----7----------------------------------------5-----------|
G:13--13-13--8--8-8-9-8---8-------9-----9------------------------13--|
D:14---------9----------9---10/11-11-11-11---6--7----------------14--|...
tracking img