Acorde

Solo disponible en BuenasTareas
  • Páginas : 8 (1986 palabras )
  • Descarga(s) : 0
  • Publicado : 29 de octubre de 2011
Leer documento completo
Vista previa del texto
|[pic]. |[pic]. |[pic]. |[pic]. |[pic]. |

ACORDES:
Fa Lam La# La#m

Fa
PUEDO OIR TU VOZ DICIENDO EL ADIOS
Lam
DESTRUYENDO TODA LA ILUSION
La#
YA NO QUIERO HABLAR NI QUIERO PENSAR
La#m
NI SIQUIERA PUEDO IMAGINAR
Rem Lam
QYE AL FIN TE IRAS DE MI LUGAR
La# La#mSI HAY ALGUIEN MAS NO PUEDO NI PENSAR
Fa Lam
Y ES QUE YA NADA QUEDA
La# La#m
SE FUE NUESTRO AMOR LAS CALLES
Fa Lam
DESIERTAS SIN LUZ SIN SOL SE FUE L CALOR
La# La#m
DE AMARTE YA NADA QUEDA DE NUESTO AMOR
Fa
MIRO Y YA NO ESTAS
Lam
NADIE A QUIEN HABLAR CAELA LLUVIA
La#
Y NO QUEDA MAS PUEDO IMAGINAR EN
La#m
AQUEL LUGAR CUANDO NOS MIRAMOS AL PASAR

AQUI SE REPITE EL CORO

|[pic]. |[pic]. |[pic]. |[pic]. |[pic]. |[pic]. |[pic]. |[pic]. |[pic]. |
|[pic]. |[pic]. |[pic]. | | | | || |

Intro

||--------------------------------------------------------||
||-----0-----0-------0-----------0-----0-------0--------0-||
||---3-----3-------3---3-------3-----3-------3---3------3-||
||-1-------------4-------4---1-------------4-------4----4-||
||-------4-----2-----------2-------4-----2-----------2--2-||||--------------------------------------------------------||

Fa#
El mismo lugar
La#m
Las calles y el mar
Si Sim Fa#
La luna ilumina las horas de mi soledad
Do#Sol#mSiSim
¿Y donde estas?

Fa#
Aun puedo escuchar
La#m
Tus pasos tu andar
Si Sim
El viento me trae los besos que hoy ya no
Fa# Do#Sol#m SiSim
Estarán ¿Y donde estas?
Sol#m Do# Do#7
Yo aquí te espero…

Coro.-Sol#m Si Fa# La#m
Y aun recuerdo ese momento
Sol#m Si Fa#Fa#Mi
Tus besos al despertar
Sol#m Si Fa# La#m
La brisa el viento, la luz del puerto
Sol#m Si
Tan lejos de la ciudad…

||------------------------------------------------------
||-----0-----0-------0-----------0-----0-------0--------
||---3-----3-------3---3-------3-----3-------3---3------||-1-------------4-------4---1-------------4-------4----
||-------4-----2-----------2-------4-----2-----------2--
||------------------------------------------------------

El frió se irá, la luz volverá Y espero que entonces el tiempo nos

-------------------------------------------------
-------------------2-----------4-----------3-----
-------3---------3---3-------4---4-------4---4--------4---4-----3-------3---4-------4---4-------4-
---4-------4-1-----------2-----------2-----------
-2-----------------------------------------------

vuelva a encontrar ¿Donde estarás?

--------------------------------------------------||
-------------------6-----------4-----------4------||
-------3---------6---6-------4---6-------4---4----||
-----4---4-----6-------6---6-------4---4-------4--||---4-------4-4-----------6-----------2------------||
-2------------------------------------------------||

Sol#m Do# Do#7
Yo aquí te espero…

Sol#mSiFa# La#m
Y aun recuerdo ese momento
Sol#m SiFa# Fa#Mi
Tus besos al despertar
Sol#m Si Fa# La#m
La brisa, el viento, la luz del puerto
Sol#m SiFa#m Do#
Tan lejos de la ciudad…

Mim Si Re La Do#

Sol#mSiFa# La#m
Y aun recuerdo ese momento
Sol#m Si Fa#Fa#Mi
Tus besos al despertar
Sol#m Si Fa# La#m
La brisa, el viento, la luz del puerto
Sol#m SiFa#Fa#Mi
Tan lejos de la ciudad
Sol#m SiFa#La#m
Tan lejos de la ciudad
Sol#m SiFa#Fa#Mi
Tan lejos de la ciudad
Sol#m Si
Tan lejos de la ciudad…

||--------------------------------------------------------||...
tracking img