Acordes de solo a terceros

Solo disponible en BuenasTareas
  • Páginas : 5 (1144 palabras )
  • Descarga(s) : 0
  • Publicado : 4 de septiembre de 2012
Leer documento completo
Vista previa del texto
Solo a terceros- Pxndx




Intro: guitarra 1
e|------------------|-----------------|----------------|-------------|
B|------------------|-----------------|----------------|-------5-----|
G|------4-----4-----|-----4-----4-----|-----4----4-----|-----4---4---|
D|----5-----5-----5-|---5-----5-----5-|---5----5-----5-|---5-------5-|A|--7-----7-----7---|-6-----6-----6---|-5----5-----5---|-4-----------|
E|------------------|-----------------|----------------|-------------|

e|--0---|-------------------------|
B|--1---|-------------------------|
G|--0---|--444444444444444444-----|
D|--2---|--444444444444444444-----|
A|--3---|--222222222222222222-----|
E|--0---|-------------------------|
************Verso: guitarra 1 y 2

e|-4----------------------4----------------------|
B|-4h5p4------------------4h5p4------------------|
G|-4----------------------4----------------------|
D|-------6666666644444444-------66666666---------|x4
A|---------------------------------------66667777|
E|-----------------------------------------------|
***************** *****************guitarra 2 0:45 - 1:10

e|-----------------|-----------------|-----------------|-----------------|
B|-----5-----5-----|-----5-----5-----|-----7-----7-----|-----9-----7-----|
G|---6-----6-----6-|---4-----4-----4-|---8-----8-----8-|---8-----8-----8-|
D|-7-----7-----7---|-6-----6-----6---|-9-----9-----9---|-9-----9-----9---|A|-----------------|-----------------|-----------------|-----------------|
E|-----------------|-----------------|-----------------|-----------------|
* * * * * * * * * * * * * * * * * * * * * * * * * * * * * * * *x4

guitarra 1 0:45 - 1:10

e|------------------|----------------|------------------|---------------|B|------------------|----------------|------------------|---------------|
G|------------------|----------------|-4--4--4--4--4--4-|-6-6---9-9-----|
D|-9--9--9--9--9--9-|-2--2--2--2--2--|-4--4--4--4--4--4-|-6-6---9-9---9-|
A|-9--9--9--9--9--9-|-2--2--2--2--2--|-2--2--2--2--2--2-|-4-4---7-7---9-|
E|-7--7--7--7--7--7-|-0--0--0--0--0--|------------------|-------------7-|
* * * * * * * * * * * * * * * * * x2e|------------------|----------------|----------------------------------|
B|------------------|----------------|----------------------------------|
G|------------------|----------------|-4--4--4--4--4--4--4--4--4--4--4--|
D|-9--9--9--9--9--9-|-2--2--2--2--2--|-4--4--4--4--4--4--4--4--4--4--4--|
A|-9--9--9--9--9--9-|-2--2--2--2--2--|-2--2--2--2--2--2--2--2--2--2--2--|E|-7--7--7--7--7--7-|-0--0--0--0--0--|----------------------------------|
* * * * * * * * * * * * * * * * * * * * * *

Coro: guitarra 1 y guitarra 2

e||-----------------------------| |-----------------------------|
B||-----------------------------| |-----------------------------|
G||-6-6--9-9--------------------|x3|-6-6--9-9--8-8--8-8--8-8-8-8-|
D||-6-6--9-9--7-7--7-7--7-7-7-7-||-6-6--9-9--9-9--9-9--9-9-9-9-|
A||-4-4--7-7--7-7--7-7--7-7-7-7-| |-4-4--7-7--7-7--7-7--7-7-7-7-|
E||-----------5-5--5-5--5-5-5-5-| |-----------------------------|

e||-----------------------------| |----------------------------|
B||-----------------------------| |----------------------------|
G||-6-6--9-9--------------------|x3|----------------------------|
D||-6-6--9-9--7-7--7-7--7-7-7-7-||-9-9---9-9-9---9-9-9--9-9-9-|
A||-4-4--7-7--7-7--7-7--7-7-7-7-| |-9-9---9-9-9---9-9-9--9-9-9-|
E||-----------5-5--5-5--5-5-5-5-| |-7-7---7-7-7---7-7-7--7-7-7-|

Verso...guitarra 1 y 2

Coro... guitarra 1 y 2

Solo guitarra 1 (acompañamiento) 3:00 - 3:18

e|--------------------------------------|
B|--------------------------------------|
G|--9-9-9-9-9-9-9-9---------------------|...
tracking img