Acordes mientes (camila)

Solo disponible en BuenasTareas
  • Páginas : 2 (400 palabras )
  • Descarga(s) : 0
  • Publicado : 30 de enero de 2012
Leer documento completo
Vista previa del texto
Intro:mientes de camila

F# E
e|---------2------------------------------|b|------0--------0------------------------|
g|---3--------3---------1-----------------| X3
D|---4------------------2-----------------|A|---4------------------2-----------------|
E|----------------------------------------|

e|---------2------------------------------|b|------0---------0------1----3----4------|
g|---3---------3---------2----4----6------|
D|---4------------------------------------|
A|---4------------------------------------|E|----------------------------------------|

VERSO
e|---------2------------------------------|b|------0--------0------------------------|
g|---3--------3---------1-----------------|
D|---4------------------2-----------------|A|---4------------------2-----------------|
E|----------------------------------------|
Tú llegaste a mi vida para enseñarmee|---------2------------------------------|
b|------0--------0------------------------|
g|---3--------3---------1-----------------|D|---4------------------2-----------------|
A|---4------------------2-----------------|
E|----------------------------------------|
tú, supiste encenderme y luego apagarmee|---------2------------------------------|
b|------0--------0------------------------|
g|---3--------3---------1-----------------|...
tracking img