Acordes

Solo disponible en BuenasTareas
  • Páginas : 2 (341 palabras )
  • Descarga(s) : 0
  • Publicado : 22 de febrero de 2012
Leer documento completo
Vista previa del texto
A,F#m,E,D
E|-------------------------|-----------------------------|
B|---------------5---------|---------------10--10h12p10--|G|---------------6h7p6-----|--------11---------11--------|
D|------7----6---------7---|----11------11---------------|
A|---7----7----------------|-9---------------------------|E|5------------------------|-----------------------------|

E|---------------------------|---------------------5-----|B|--------------9------------|--------------7------7-----|
G|-------9------9h11p9-------|-------7------7h9p7--7-----|
D|----9-----9---9------------|----7-----7---7------7-----|A|-7-------------------7-----|-5-------------------5-----|
E|---------------------------|---------------------------|
This is what played during the intro andchorus, this design of how
it's arpeggiated is
kinda sketchy but the progression is dead on.
But i know he's using open chords cause i can hearhow the high strings
sound.

Verse: D5,E5,F#5
^=quick upstroke
E|----------------------|B|-------------11--11---|
G|-7~~-----9---11--11---|
D|-7~~-----9---11--11---|
A|-5~~-----7---9---^----|
E|----------------------|Verse 1:
D5 E5 F#5
I've been searching for you
D5 E5 F#5
I hearda cry within my soul
D5 E5 F#5
I never had a yearning quite like this before
D5 E5...
tracking img