Acordes

Solo disponible en BuenasTareas
  • Páginas : 11 (2646 palabras )
  • Descarga(s) : 0
  • Publicado : 8 de marzo de 2012
Leer documento completo
Vista previa del texto
e|---3---3------3--3---3------7--7--5--3--2--3--5--2----------------||
B|-0---0---0--1------1---1--0------------------------3--------------||
G|-----------------------------------------------------2--0---------||
D|----------------------------------------------------------4-------||
A|------------------------------------------------------------------||E|------------------------------------------------------------------||

|-----2--3--3--------3--2--5--5--2--3--2--0--------------------------||
|---3---------3--0--------------------------3--1--0--3--1--0--2--0--4||
|-2----------------0-------------------------------------------------||
|--------------------------------------------------------------------||
|--------------------------------------------------------------------|||--------------------------------------------------------------------||

|-----2--3--3--------3--2--5--5--2--3--2--0--------------------------||
|---3---------3--0--------------------------3--1--0--3--1--0---------||
|-2----------------0------------------------------------------2--0---||
|-------------------------------------------------------------------4|||--------------------------------------------------------------------||
|--------------------------------------------------------------------||

e|-------------3--2--5--7--2--3--0--------------|--------------------||
B|----------0-----------------------3--1--0-----|------0--0--1--3----||
G|-0--2--3----------------------------------2--0|-0--2---------------||D|----------------------------------------------|--------------------||
A|----------------------------------------------|--------------------||
E|----------------------------------------------|--------------------||

G D
Un olor a tabaco y channel
Em C D
me recuerda el olor de su piel
G D
una mezcla de miel y cafe
Em C D Dsus4
me recuerda el sabor de sus besos

GD
el color de el final de la noche
Em C D C
me pregunta donde fuy a parar, donde estas
Em C
que esto solo se vive una vez
D Dsus4
donde fuiste a parar donde estas.

CORO
G D Dsus4
Un olor a tabaco y chanel,
C Em D-C
y una mezcla de miel y cafeD Dsus4
me preguntan por ella (ella)
C D Dsus4
me preguntan por ella
G D Dsus4
me preguntan también las estrellas
C Em D-C
me reclaman que vuelva por ella
D Dsus4
hay que vuelva por ella (ella)
C D Dsus4 G
hay que vuelva por eeeeeella

C
No seolvida, no se va, no se olvida
G D Dsus4
No se va, no se olvida nada, nada...
G Em
No se va, no se olvida, no se va, ¡no se olvida!
G D Dsus4
No se va, no se olvida nada, nada...

G D
Una rosa que no floreció
Em C D
Pero que el tiempo no la marchita
GD Em
Una flor prometida a un amor que no fue
C D
pero que sigue viva

G D C
Y otra vez, el color del final, del final, de la noche
Em D C
me pregunta donde fuy a parar,
Em C
que esto solo se vive una vez
D Dsus4
donde fuiste a parardonde estas.

CORO
G D
Un olor a tabaco...

G D Dsus4
me preguntan también las estrellas
C Em D-C
me reclaman que vuelva por ella
D Dsus4
hay que vuelva por ella (ella)
C D Dsus4 Am7
hay que vuelva por eeeeeella

Cm7
Pero fueron las mismas estrellas...
tracking img