Algo

Solo disponible en BuenasTareas
  • Páginas : 59 (14539 palabras )
  • Descarga(s) : 0
  • Publicado : 2 de marzo de 2011
Leer documento completo
Vista previa del texto
Learn to play "Sunshine Of Your Love" with online video lessons[pic]

Artist: Cream
Title: Sunshine Of Your Love
Transcribed by: Collin Middleton
Email: stickboy20@hotmail.com

Here's an awesome song with one of the most recognizable riffs in music.
The verse and chorus to the song are pretty easy, but Clapton has a bitching
solo in there that's quite tough. I'm pretty sure this isright, or atleast
the closest thing to correct I've seen. E-mail me with any comments or questions.

h=hammer-on
p=pull-off
b=bend
~~~~~ = hold note

Song Order:
Riff 1 x 6
Riff 2 x 2
Riff 1 x 2
Chorus x 2
Chorus part 2 x 1

Riff 1 x 6
Riff 2 x 2
Riff 1 x 2
Chorus x 2
Chorus part 2 x 1

Solo

Riff 1 x 6
Riff 2 x 2
Riff 1 x 2
Chorus x 5
Chorus part 2 x 1

Riff One------------------------------------------------------------------------------
------------------------------------------------------------------------------
------------------------------------------------------------------------------
------12--12---10---12--------------------------------------------------------
------------------------12--11--10------b8------------------------------------------------------------------------10------10--------------------------------
It's getting near dawn.....

Riff 2
------------------------------------------------------------------------------
------------------------------------------------------------------------------
------12--12---10---12--------------------------------------------------------------------------------12--11--10------b8------------------------------------
------------------------------------10------10--------------------------------
------------------------------------------------------------------------------
I'll be with you darling soon....

Chorus
------------------------------------------------------------------------------
--------------------------------------------------------------------------------------------------5---------------------------------------------------------
--7-7-7-------------5---------5-----------------------------------------------
--7-7-7-------------3---------5-----------------------------------------------
--5-5-5-----------------------3-----------------------------------------------
I've been waiting so long.......

Chorus part 2------------------------------------------------------------------------------
------------------------------------------------------------------------------
-----------------5------------------------------------------------------------
--7-7-7----------5---------5------7-7-7-7-7-7-7-7-----------------------------
--7-7-7----------3---------5------7-7-7-7-7-7-7-7-------------------------------5-5-5--------------------3------5-5-5-5-5-5-5-5-----------------------------
In this sunshine of your love............

Solo
------------------------------------------------------------------------------
------------------------12----------------------------------------------------
--b12--b12-------12-b12----b12---12--b12----------b9p7--9--7--b9--7-----------------------------------------------------------------------------------------
------------------------------------------------------------------------------
------------------------------------------------------------------------------
~~~~~~ ~~~~~~~~ ~~~~~~~~~

-------------------------------------------------------------------------------------------9----9-----------------------------------------------------------
-------7h9--b9---b9----7h9p7-----------b10---b10---b10------------------------
--7h9-------------------------------------------------------------------------
------------------------------------------------------------------------------
------------------------------------------------------------------------------
~~~~~~~~~~...
tracking img