Black bajo tab

Solo disponible en BuenasTareas
  • Páginas : 3 (587 palabras )
  • Descarga(s) : 4
  • Publicado : 19 de mayo de 2010
Leer documento completo
Vista previa del texto
Heee-eeeeeeeyeah

G|-21-------------|
D|----20/---------|
A|----------------|
E|----------------|

G|---------------------------------------------------------------------------|D|---------------------------------------------------------------------------|
A|--7---7-7---7----------4-4--4--5-5-6-6--7-----7---7------------------------E|----------------5--5-5----------------------0---------5---5h7p5----5/3-----

Sheets of empty canvas...untouched sheets of clay

G|---------------------------------------------------------------------------|D|---------------------------------------------------------------------------|
A|--7---7-----------0-0-4-4-4-4-5-5-6-6-7~----------------------------------|
E|--------0--------------------------------------0~-------------------------|Were laid spread out before me...as her body once did

G|---------------------------------------------------------------------------|D|---------------------------------------------------------------------------|
A|--7---7--------0---0-0-4-4-4-4-5-5-5-5-7----7------------------------------|
E|--------0----0--------------------------------0--0-5---5h7p5----5/3--------|

All five horizonsrevolved around her soul...as the earth to the sun

G|---------------------------------------------------------------------------|D|---------------------------------------------------------------------------|
A|------7--------0---0-0-4-4-4-4-5-5-5-5-7~----------------------------------|
E|--0-----0----0----------------------------------0~-------------------------|

Now the air I tasted andbreathed...has taken a turn

G|----------------------------------------------------7h9-----7-9-12---------|
D|---------------------------------------------------------------------------|A|--3----3-3-3-3-3-----3---3-3-3-3-3-3-3-3-3-7~------------------------------|
E|---------------------------------------------------------------------------|

oooh and all I taught her was...everything...
tracking img