Californicacion

Solo disponible en BuenasTareas
  • Páginas : 3 (708 palabras )
  • Descarga(s) : 0
  • Publicado : 29 de marzo de 2011
Leer documento completo
Vista previa del texto
e|--------------------------------------
B|----------0-1-------------------------
G|--------------------------------------D|-----2-----------------0--2-----------
A|--0-----------------3-----------------
E|-----------------1--------------------x3

Psychic spies from China
Tryto steal your mind’s elation
Little girls from Sweden
Dream of silver screen quotations
And if you want these kind of dreams
It’s Californicatione|--------------------------------------
B|----------0-1-------------------------
G|--------------------------------------D|-----2-----------------0--2-----------
A|--0-----------------3-----------------
E|-----------------1--------------------x2

It’s the edge of the world
And all ofwestern civilization
The sun may rise in the East
At least it settles in the final location
It’s understood that Hollywood
sells Californication

Pay yoursurgeon very well
To break the spell of aging
Celebrity skin is this your chin
Or is that war your waging

coro:
First born unicorn
Hard core soft porn
Dream of Californication
Dream ofCalifornication

e|--------------------------------------
B|----------0-1-------------------------G|--------------------------------------
D|-----2-----------------0--2-----------
A|--0-----------------3-----------------
E|-----------------1--------------------x2Marry me girl be my fairy to the world
Be my very own constellation
A teenage bride with a baby inside
Getting high on information
And buy me a star on the boulevard
It’s...
tracking img