Cancionero

Solo disponible en BuenasTareas
  • Páginas : 34 (8493 palabras )
  • Descarga(s) : 0
  • Publicado : 26 de enero de 2012
Leer documento completo
Vista previa del texto
canÍndice
Pensando en ti – mago de oz
Quiero ver – café Tacuba
Lucha de gigantes – Nacha pop
Luz de día – enanitos verdes
Porque las cosas cambian – enrique Bunbury
Rosa de los vientos – mago de oz
Hoy toca ser feliz – mago de oz
Tu forma de ser – los auténticos decadentes
La chispa adecuada – héroes del silencio
Hoy tengo miedo – Fobia
Hotel california – Eagles
Vía láctea – ZoeLa flaca – jarabe de palo
Sirena varada – héroes del silencio
La rubia y el demonio – panteón rococó
Vendedora de caricias – panteón rococó
Hombre lobo en parís – la unión
Aunque no sea conmigo – café Tacuba
When the Sun Goes Down - Arctic Monkeys
Para no olvidar – Andres Calamaro
Romance anonimo
Soñé – Zoe
Persiana Americana – soda stereo
REM – LOSING MY RELIGION
LA LEY – ELDUELO UNPLUGGED
ENRIQUE BUNBURY – EL EXTRANJERO

Mago De Oz - Pensando en ti 0
Cmaj7 x32000
Cadd9 x32030
Asus2 x02200
Asus4 x02230
G/B x20033
Dsus2/F# 200230
Dm xx0231
Dm7 xx0211

Intro:
C Cmaj7 Cadd9 C
+ + + + + + + + + + + + + + + +e:-----------------|-----------------|-----------------|-----------------
B:-1---------1-----|-0---------0-----|-3---------0-----|-1---------1-----
G:-------0-------0-|-------0-------0-|-------0-------0-|-------0-------0-
D:-----2-------2---|-----2-------2---|-----2-------2---|-----2-------2---
A:-3-------3-------|-3-------3-------|-3-------3-------|-3-------3-------E:-----------------|-----------------|-----------------|-----------------

Asus2 Asus4 Am Asus2
+ + + + + + + + + + + + + + + +
e:-----------------|-----------------|-----------------|-----------------
B:-0---------0-----|-3---------3-----|-1---------1-----|-0---------0-----
G:-------2-------2-|-------2-------2-|-------2-------2-|-------2-------2-D:-----2-------2---|-----2-------2---|-----2-------2---|-----2-------2---
A:-0-------0-------|-0-------0-------|-0-------0-------|-0-------0-------
E:-----------------|-----------------|-----------------|-----------------
Cadd9 C Cmaj7 Cadd9
+ + + + + + + + + + + + + + + +e:-----------------|-----------------|-----------------|-----------------
B:-3---------3-----|-1---------1-----|-0---------0-----|-3---------3-----
G:-------0-------0-|-------0-------0-|-------0-------0-|-------0-------0-
D:-----2-------2---|-----2-------2---|-----2-------2---|-----2-------2---
A:-3-------3-------|-3-------3-------|-3-------3-------|-3-------3-------E:-----------------|-----------------|-----------------|-----------------
Am Asus2 Asus4 Am G/B
+ + + + + + + + + + + + + + + +
e:-----------------|-----------------|-----------------|-----------------
B:-1---------1-----|-0---------0-----|-3---------3-----|-1---------------
G:-------2-------2-|-------2-------2-|-------2-------2-|-------2---------D:-----2-------2---|-----2-------2---|-----2-------2---|-----2-----------
A:-0-------0-------|-0-------0-------|-0-------0-------|-0-------0---2---
E:-----------------|-----------------|-----------------|-----------------
Ahora muévete hasta los versos
Hay veces que
C G/B Am
+ + + + + + + + + + + + ++ + +
e:-----------------|-3---------3-----|-0---------------|-0---------------
B:-1---------1-----|-3---------3-----|-1---------1-----|-1---------1-----
G:-------0-------0-|-------0-------0-|-------2-------2-|-------2-------2-
D:-----2-------2---|-----0-------0---|-----2-------2---|-----2-------2---
A:-3-------3-------|-2-------2-------|-0-------0-------|-0-------0-------...
tracking img