El verdadero añor perdona

Solo disponible en BuenasTareas
  • Páginas : 6 (1251 palabras )
  • Descarga(s) : 0
  • Publicado : 12 de febrero de 2012
Leer documento completo
Vista previa del texto
El verdadero amor perdona.
Intro D#m A#m B F#
....


e|---------------------|----------------------|
b|---------------------|----------------------|
g|---------------------|----------------------|
D|--8---8---8------8---|----------------------|A|----6---6---6—8----9-|--8---8---8----8------|
E|---------------------|----6---6---6-7----9--|

e|---------------------|----------------------|
b|---------------------|----------------------|
g|---------------------|--6---6---6------6----|
D|--4---4---4------4---|----4---4---4--6---8--|A|----2---2---2—4----6-|----------------------|
E|---------------------|----------------------|

Tienes todos los espacios

e|---------------------|-------------------------|
b|---------------------|-------------------------|
g|---------------------|-------------------------|D|--8---8---8------8---|-------------------------|
A|----6---6---6—8----9-|--8---8---8------8-------|
E|---------------------|----6---6---6-7-----9----|

Inundados de tu ausencia

e|---------------------|----------------------|
b|---------------------|----------------------|g|---------------------|--6---6---6------6----|
D|--4---4---4------4---|----4---4---4--6---8--|
A|----2---2---2—4----6-|----------------------|
E|---------------------|----------------------|

Inundados de silencioe|---------------------|--------------------------|
b|---------------------|--------------------------|
g|---------------------|--------------------------|
D|--8---8---8------8---|--------------------------|
A|----6---6---6—8----9-|--8---8---8-------8-------|
E|---------------------|----6---6------7-----9----|

No haypalabras no hay perdón

e|---------------------|---------------------------|
b|---------------------|---------------------------|
g|---------------------|--6---6---6----------------|
D|--4---4---4------4---|----4---4----6/8--6--4--6--|
A|----2---2---2—4----6-|---------------------------|E|---------------------|---------------------------|

Se oye un slide que es b|--2/11b--|

D#m A#m
Tu me tienes olvidado

e|---------------------|------------------------|
b|---------------------|------------------------|g|---------------------|------------------------|
D|--8---8---8------8---|------------------------|
A|----6---6---6—8----9-|--8---8---8-----8-------|
E|---------------------|----6---6---6-7----9----|

B F#
No respondes al llamadoe|---------------------|----------------------|
b|---------------------|----------------------|
g|---------------------|--6---6---6------6----|
D|--4---4---4------4---|----4---4---4--6---8--|
A|----2---2---2—4----6-|----------------------|
E|---------------------|----------------------|

D#m...
tracking img