Etica

Solo disponible en BuenasTareas
  • Páginas : 6 (1297 palabras )
  • Descarga(s) : 0
  • Publicado : 17 de mayo de 2011
Leer documento completo
Vista previa del texto
Ola!!! Bueno Les Mando una Tab Mejor… Ya Que Despues Ni
Ni A Mi Me Latio Como Se Oia jajaja
Aquí Les Va Una Muy Buena Cancion :D Titulada:

*****GRACIAS POR EXISTIR*********

Intro-Arpegio 1
(se escucha mejor con 2 guitarras) EnTrAn Al *MiSmO tImPo De BaJeO*y La GuIt.2 Va Mas rApIdO

GuIt. 1
e-----------0--0------------0--0------------0--0-----------0-0----/
b-----3-3----3--3-----3-3----3--3-------3-3--3--3------3-3--3-3---/
g------0---------------0-----------------0--------------0---------/d-----------------------------------0---------------0-------------/
a------------------3----------------------------------------------/
e--3--------------------------------------------------------------/

GuIt. 2
e-------0---------0---------0--------0-----/
B----3----3-----3---3-----3---3----3---3---/G------------------------------------------/
D-----------------------0---------0--------/
A-------------3----------------------------/
E-3----------------------------------------/


( MiEnTrAs KnTa esTo, ToQuen El ArPeGiO ok)

Muchas veces las canciones de amor son un retratoDel animo en el que estamos

Poesías bellas casi siempre son un buen remedio

Contra tantas noches de soledad ( Variacion )


Aquí Termina El Arpegio Intro Se Escucha Una Ligera Variacion
Cuando Dice “”Soledad”” Seria asi--------------ARPEGIO DE INTRO NORMAL------------/-Variacion

e---------0-0----------0-0----------0-0----------/-----/
b----3-3---3-3-----3-3--3-3-----3-3--3-3---------/-3-3-/
g-----0-------------0------------0---------------/-----/
d----------------------------0------------0------/-----/a---------------3--------------------------------/-----/
e--3---------------------------------------------/-----/

Despues sigue El Arpegio De 3 Estrofas seria En 0:39 Seg
Y De Iwal Manera Se Oie Xido Con Dos Guitarras…
***Cuando termina el arpegio las dos guitarras traten deTocar las notas que les indicare pero como si fuera rasgueo,
Dejen resvalar la plumilla… y veran que se oie bien :)***

Guit. 1
e-----------------/ /-----------------/
b---------0--0----/ /---------0—-0----/
G---0--0---0--0---/ x2 /---0--0---0--0---/ x2
D--2--2-----------//--4--4-----------/
A-----------------/ /-----------------/
E-----------------/ /-----------------/


Guit. 2
e-----0-------0----/ /-----0--------0----/-------------------/
b------------------/ /-------------------/---3-------3---3---/G---0---0---0---0--/ x2 /---0---0----0---0--/----0------------0-/
D--2-------2-------/ /--4--------4-------/-------------------/
A------------------/ /-------------------/--2-------2--------/
E------------------/ /-------------------/-3—--3h5-3---------/

Ya lo oi

Q al reir...
tracking img