Flyleaf

Solo disponible en BuenasTareas
  • Páginas : 4 (878 palabras )
  • Descarga(s) : 0
  • Publicado : 24 de mayo de 2011
Leer documento completo
Vista previa del texto
Intro
G----------------------------------------------------------------
D-4-4-4-4-4-4-4-4-7-7-7-7-7-7-7-7-12-12-12-12-12-12-12-12-12-----A----------------------------------------------------------------
D----------------------------------------------------------------

G-----------------------------------------------------------------------D-----------------------------------------------------------------------
A-----------------------------------------------------------------------
D-4-4-4-4-4-4-4-4-7-7-7-7-7-7-7-7-2-2-2-2-2-2-2-2-0-0-0-0-0-0-0-0-12~---

Verse 1G--------------------------------------------------------------------------
D--------------------------------------------------------------------------A---------------------------------5-5-5-5-5-5-5-5-5-5-5-5-5-5-5-5----------
D-4-4-4-4-4-4-4-4-2-2-2-2-2-2-2-2------------------------------------------

G--------------------------------------------------------------------------D--------------------------------------------------------------------------
A---------------------------------5-5-5-5-5-5-5-5-5-5-5-5-5-5-5-5----------D-4-4-4-4-4-4-4-4-2-2-2-2-2-2-2-2------------------------------------------

G--------------------------------------------------------------------------
D-------------------------------------------------------7-7-7--------------A---------------------------------5-5-5-5-5-5-5-5-5-5-5--------------------
D-4-4-4-4-4-4-4-4-2-2-2-2-2-2-2-2------------------------------------------

G--------------------------------------------------------------------------D-------------------------6---6-7---------------------------7-7-7----------
A-----------------7-7-7-7---7-----5-5-5-5-5-5-5-5-5-5-5-5-5----------------D-4-4-4-4-4-4-4-4----------------------------------------------------------

G------------------------------------
D------------------------------------
A-----------------7-7-7-7------------
D-4-4-4-4-4-4-4-4--------------------

Pre-Chorus...
tracking img