La vida y el porro

Solo disponible en BuenasTareas
  • Páginas : 4 (810 palabras )
  • Descarga(s) : 0
  • Publicado : 12 de septiembre de 2012
Leer documento completo
Vista previa del texto
Main Riff Front---Bridge-(Middle Goodies)---------------Back
|-----------------|-------|--------------------------------------|-------||-----------------|-------|--------------------------------------|-------|
|-----------------|-------|--------------------------------------|-------||-----------------|-------|--------------------------------------|-------|
|-5-5-2-----3-3-2-|-5-5-2-|2-2-2-2-2-2-2-2-2-2-2-2-2-2-2-2-2-2-2-|-3-3-2-||-3-3-0-----1-1-0-|-3-3-0-|0-0-0-0-0-0-0-0-0-0-0-0-0-0-0-0-0-0-0-|-1-1-0-|
. . . . . . . . . . . . . . . . .

Chorus|---------------------------------------------------------|
|---------------------------------------------------------|
|---------------------------------------------------------||---------------5-5-2---2-2-2-5-5-----------4-4-----------|
|-5-5-2---2-2-2-3-3-0---0-0-0-3-3-5---5-5-5-2-2-3---3-3-3-||-3-3-0---0-0-0-------------------3---3-3-3-----1---1-1-1-|


Break
|-------------------------------|
|-------------------------------||-------------------------------|
|---------5-5-2---5-5-----4-4---|
|-5-5-2---3-3-0---3-3-5---2-2-3-|
|-3-3-0---------------3-------1-|http://www.mediafire.com/?sharekey=c4eaca6f902b911525289783d8cc12261a2f033605f30879c81041a3fc51d567
http://superstremo.net/posts/juegos/1224/Gu-a-del-minecraft-Actualizada-a-la-version-1-7-.html
190.178.0.28ID: Santi179
C:jamonyqueso

El Error - Carajo
Intro 2 veces
A5 A5
e------------------------------
b------------------------------
g------------------------------...
tracking img