Letras traducidad

Solo disponible en BuenasTareas
  • Páginas : 18 (4298 palabras )
  • Descarga(s) : 0
  • Publicado : 25 de agosto de 2010
Leer documento completo
Vista previa del texto
A MI MANERA.

C Em Gm6 A7
El final se acerca ya, lo esperaré serenamente.
Dm Dm7 G7 C
Ya vez que yo he sido así, te lo diré sinceramente.
C C7 F Fm
Viví la inmensidad sin conocer jamas frontera,
C G7 C
jugué sin descansar y a mi manera.

C EmGm6 A7
Jamás tuve un amor que para mi fuera importante.
Dm Dm7 G7 C
Corté solo la flor y lo mejor de cada instante.
C C7 F Fm
Viajé y disfruté, no se si más que otro cualquiera,
C G7 C
si bien, todo esto fué a mi manera.

C C7 F Fm
Talvezlloré, talvez reí, talvez gané, talvez perdí,
Dm7 G7 Em7 Am
ahora sé que fuí feliz, Que si lloré tambien amé,
Dm G F6 C
puedo seguir hasta el final, a mi manera...

C Em Gm6 A7
Quizás tambien lloré cuando yo mas me divertía,
Dm Dm7 G7 C
Quizas, yo despreciéaquello que no comprendía.
C C7 F Fm
Hoy sé que firme fuí, y que afronté ser como era
C G7 C
y así logré vivir a mi manera...

C C7
Porque sabras que un hombre al fin
F Fm
conoceras por su vivir
Dm G7
No hay porque hablar ni que decir
EmAm
ni recordar, ni que fingir
Dm G7 F6 C
voy a seguir hasta el final a mi mane-e-e-ra...

EL BREVE ESPACIO.
G C D G C D G
e ---7--------7-------7--8-----8-7--5----10-8-7------7--8---8-7-5---7---7--
B ---8---8-10-8--8-10----8--8-------7--7------8----8----8-------7-7---8-8--
G---7-7--------------------------------------7--7------9-9-----7-------7--
D ---9---------------------------------------------------------------------
A -------------------------------------------------------------------------
E -------------------------------------------------------------------------
C D G C D G
e ----------------3--2-0---------0-----0--2--0-----|
B--8---8-7-5---5-3--3----2------1---1----3-----0--|
G ----7-----5-5------2----0--------0------2-----0--|
D ----------5-----------------------------0-----0--|
A ----------3--------------------3-----------------|
E ------------------------3---------------------3--|

G C D G C D
Todavía quedan restos de humedad
G C A7 D C D
sus olores llenan ya mi soledad
GC C/B Am
en la cama su silueta
D7 Bm
se dibuja cual promesa
G C C/B Am D C D
de llenar el breve espacio en que no está.

G C D G C D
Todavía yo no sé si volverá
G C A7 D C D
nadie sabe al día siguiente lo que hará
G C C/B Am
rompe todos mis esquemas,
D7Bm
no confiesa ni una pena
G C C/B Am D B7sus4 B7
no me pide nada a cambio de lo que da.

Em C D G
Suele ser violenta y tierna no habla de uniones eternas
F#7 Bm F#7 Bm
más se entrega cual si hubiera solo un día para amar,
E7 Am D G
no comparte una reunión más le gusta la canciónC C/B Am D C D
que comprometa su pensar. . .

G C D G C D
Todavía no pregunté: '¿te quedarás?'
G C A7 D C D
temo mucho a la respuesta de un '¡jamás!'
G C C/B Am
la prefiero compartida
D7 Bm
antes que vaciar mi vida
G C C/B Am D
no es perfecta mas se...
tracking img