Libros

Solo disponible en BuenasTareas
  • Páginas : 3 (598 palabras )
  • Descarga(s) : 0
  • Publicado : 19 de agosto de 2012
Leer documento completo
Vista previa del texto
e-6---6--6---------6-4
B----7-7----7------7-5
G---6---6--6-----6-6-4
D-------------6h8-----
A---------------------
E---------------------

e---4--4---------4-2-
B--5-5----5------5-3-G-4---4--4-----4-4-2-
D-----------4h6------
A--------------------
E--------------------

e---2--2h4-6-2---2-
B--3-3--------4h6--
G-2---2------------
D------------------
A------------------E------------------

ESTO HAGANLO ARPEGIANDO LOS TONOS

F#
Siempre fui
e---2---
B-2--2--
G--3--3-
D-------
A-------
E-2-----
B F#
Esclavo de la libertade---------2----------2---
B-------3--3-------2--2--
G--------3--3-------3--3-
D------------------------
A-------2----------------
E------------------2-----
B D
De esos que saben flotare--------------2----------2---
B------------3--3-------3--3--
G-------------3--3-------2--2-
D-----------------------0-----
A------------2----------------
E-----------------------------
EF#
Y que besan el cielo
e-------0------------2---2-X-
B-----0--0---------2--2--2-X-
G------1--1---------3--3-3-X-
D------------------------4-X-
A------------------------4-X-E-----0------------2-----2-X-
F#
Y hasta a que
e-----------2---
B---------2--2--
G----------3--3-
D---------------
A---------------
E---------2-----

B F#
Aparecistepor ahí
e---------2----------2---
B-------3--3-------2--2--
G--------3--3-------3--3-
D------------------------
A-------2----------------
E------------------2-----
B D
Medecidí aterrizar
e-----------2----------2---
B--------3---3------3---3--
G----------3--3-------2--2-
D-------------------0------
A--------2-----------------
E--------------------------
EF#
Y quedarme en tu suelo
e-------0------------2---2-X-
B-----0--0---------2--2--2-X-
G------1--1---------3--3-3-X-
D------------------------4-X-
A------------------------4-X-...
tracking img