Master of puppets

Solo disponible en BuenasTareas
  • Páginas : 2 (452 palabras )
  • Descarga(s) : 0
  • Publicado : 28 de marzo de 2011
Leer documento completo
Vista previa del texto
*6*Play Six Times*6*
|--------------------------------------------------------------------|
|--------------------------------------------------------------------||--------------------------------------------------------------------|
|--------------------------------------------------------------------|
|-----------------5/7--8\7--5/7------------------5/7--5/7------------||-0-0-0-0-0-0-0-0-3/5--6\5--3/5--0-0-0-0-0-0-0-0-3/5--3/5------------|

*2*Play Two Times*2*
|--------------------------------------------------------------------||--------------------------------------------------------------------|
|--------------------------------------------------------------------|
|------------------4-4--5\4-4-4-------------------4---4--------------||------------------0-2--3\2-0-2-------------------0h2-0h2------------|
|-2-2-2-2-2-2-2-2----------------2-2-2-2-2-2-2-2---------------------|

|-------------------|
|-------------------||-4-4-4-4-4-4-4-4---|
|-4-4-4-4-4-4-4-4---|
|-2-2-2-2-2-2-2-2---|
|-------------------|

*3*Play Three Times*3*
|--------------------------------------------------------------------||--------------------------------------------------------------------|
|-9-------7--9------------------------------------------8------------|
|-9-------7--9------9------------------10--9------------8--9---------||-7-------5--7--7-9---10-9h10----------10--9------------6--9---------|
|-0-0-0-0----------------------8-8-8-8-8---7----8-8-8-8----7---------||--------------------------------------------------------------------|
|--------------------------------------------------------------------|
|-9-------7--9-------------------------------------------------------||-9-------7--9------9------------------10--9----------------2-2---3-3|
|-7-------5--7--7-9---10-9h10----------10--9--9-7-6--6------2-2---1-1|
|-0-0-0-0----------------------8-8-8-8-8---7-----------8-7--0-0---1-1|...
tracking img