Musica

Solo disponible en BuenasTareas
  • Páginas : 3 (532 palabras )
  • Descarga(s) : 0
  • Publicado : 29 de agosto de 2012
Leer documento completo
Vista previa del texto
http://www.tusacordes.com/secciones/ver_tema.php?ver=2&id=25017
intro:
Bm9 A/B (una A trabaja también)
|-9-------------------------------------|-X-------------------------------||-7---------------2-3-5-7-7/87-5/7~~~~-|-10-------3-2--------------------|
|-7--4-4h6p4p3-4------------------------|-9---2-4------0-2-2h4-2----------||-7-------------------------------------|-11----------------------4/2-----|
|-9-------------------------------------|-12--------------------------5/7-|
|-7-------------------------------------|-9-------------------------------|

Em******REPETIR****** F#7
-7--------0------0------0------0|---7p0---10p0-|-----7-6-7-9-10-9-10-12/14-2|
-8------0------0------0------0--|--8-----8-----|---8-----------------------2|-9----0------2------4------7----|-9-----9------|-9-------------------------3|
-9--2------4------5------9------|--------------|-----------------2----------|-X------------------------------|--------------|---------------4------------|
-X------------------------------|--------------|-------------2--------------|

*ENTONCES JUEGAN 5 BARRAS DE PERCUSIÓN:

Bm9 A/B|-9----2h3p2---2-2---2---|-------------|-X-----------------------
|-7----------5-----5---3-|-5p3---3-----|-10------3p2---2--2------
|-7--4-------------------|-----4---2/4-|-9---2-4-----4------2--4-|-7----------------------|-------------|-11----------------------
|-9----------------------|-------------|-12----------------------
|-7----------------------|-------------|-9-----------------------

Em-----------------7--9-10-9-10-|-12----------0--------0--------0-
-----5-8--7-7-8h10------------|------------0--------0--------0---
-6-7--------------------------|----------0--------2--------4-----------------------------------|-------2--------4--------5--------
------------------------------|----------------------------------
------------------------------|----------------------------------

F#7...
tracking img