Musica

Solo disponible en BuenasTareas
  • Páginas : 2 (452 palabras )
  • Descarga(s) : 0
  • Publicado : 23 de octubre de 2010
Leer documento completo
Vista previa del texto
&-#---||----------------|---|-----------------|----||
&-----||----------------|---|-----------------|----||
&---4-||o-----------%---|---|-----------%-----|---o||&---4-||o-----------%-9-|-9-|-----------%-9-7-|-7-o||
&-----||--------------9-|-9-|-------------9-7-|-7--||
&-----||--0-0-0-0-0---7-|-7-|-0-0-0-0-0---7-5-|-5--||
~~~~~ ~~~~~

w/RythFig 1 (once)

||-------------------|-----------|------------------|----------||---------|
||-------------------|-----------|------------------|----------||---------|||o-------------%----|-------%-}-|------------------|-----%-}-o||-}-------|
||o-------------%-9--|-9--9--%-}-|-----------%-9--7-|-7-7-%-}-o||-}-------|||----------------10-|-10-10-----|-----------%-10-9-|-9-9------||---7-5-5-|
||--0-0-0-0-0-0------|-----------|-0-0-0-0-0--------|----------||---5-3-2-|
~~~~~~~ ~~~~~

(Ryth Fig 3) (end Ryt Fig 3)(Ryth Fig 4)(end Ryth Fig 4)
x8 x4
||------------------|----------------------||-------------|------------------||||------------------|----------------------||-------------|------------------||
||o-----------------|---------------------o||o------------|-----------------o||||o-----2-----2---2-|-----2---------------o||o------------|-----------------o||
||------2-----2---2-|-----2---2-3-2-3-2-0--||-----5-----5-|------------------||
||--0-0---0-0---0---|-0-0---0--------------||-0-0-3-0-0-3-|-0-0-2-2-2-2-2-2--||H P P

You then play Ryth Fig 3 four times, and then continue.

|---|---|---|---------|
|---|---|---|---------| The singing starts. Keep playing Ryth Fig 3|---|---|---|---4-6---| until the singing stops (16 bars later) then
|-2-|-2-|-2-|-2-4-6-4-| start playing Ryth Fig 4 four times.
|-2-|-2-|-2-|-2-2-4-4-|
|-0-|-0-|-0-|-0-----2-|
~~~~~~~~~~~~~...
tracking img