No hay titulo

Solo disponible en BuenasTareas
  • Páginas : 2 (255 palabras )
  • Descarga(s) : 0
  • Publicado : 7 de septiembre de 2012
Leer documento completo
Vista previa del texto
Guitarra Acustica= capo en el 2do traste.

Intro: (Guitarra electrica)

F# D#m7 Bm9

e-|-2---1-----2---1-------------------|
B-|--------2---------2---0---2---2/4--|C#sus4 F#

e-|------4--4/6--4-2------4--4/6--4-2-2-|
B-|-2--4-------------2--4---------------|


F# D#m7
Me he vuelto dependiente de tucorazón

y de tu amistad
Bm9 C#sus4
me he vuelto dependiente de tu dirección

en mi caminar.
F# D#m7
No hay nada que me llenecomo lo haces Tú

eres mi diario pan
Bm9 C#sus4
Tú eres la razón de cada sueño en mí

eres mi verdad.


CORO:

F#
De ti depende mi vidaD#m7
mis sueños y mi alegría
E▲9
como la lluvia necesita nubes
Bm9 C#sus4
como el río del mar.


Acordes:

F#

1 2 3 4 5e-| |----|-||-|----|----|----|----|
B-| |----|-||-|----|----|----|----|
G-| |----|-||-|-◙--|----|----|----|
D-| |----|-||-|----|-◙--|----|----|
A-| |----|-||-|----|-◙--|----|----|
E-||----|-||-|----|----|----|----|


D#m7

1 2 3 4 5 6 7 8
e-| |----|-||-|----|----|----|----|----|----|
B-| |----|-||-|----|----|----|----|----|----|
G-||----|-||-|----|----|----|----|----|-◙--|
D-| |----|-||-|----|----|----|----|----|-◙--|
A-| |----|-||-|----|----|----|-◙--|----|----|
E-| |----|-||-|----|----|----|----|----1----|


Bm91 2 3 4 5 6 7
e-| |----|-||-|----|----|----|----|----|
B-| |----|-||-|----|----|----|----|----|
G-| |----|-||-|----|----|----|----|-◙--|
D-||----|-||-|----|----|----|----|-◙--|
A-| |----|-||-|----|----|----|----|----|
E-|X|----|-||-|----|----|----|----|----|



C#sus4

1 2 3 4 5 6
e-| |----|-||-|----|----|----|----|
B-|...
tracking img