Pxndx

Solo disponible en BuenasTareas
  • Páginas : 24 (5929 palabras )
  • Descarga(s) : 0
  • Publicado : 7 de diciembre de 2011
Leer documento completo
Vista previa del texto
PORQUE TODAVIA PODEMOS DECIR UNA VEZ MAS
Intro y Verso 1 y 2
e |-------------------------------------------------------------|
B |---------0---------------0---------------0-4-0--------0-2-0--|
G |-------4----4---4------4—---4---4------4------------4--------|
D|-----2--------2------2--------2------2------------2----------|
A |-----------------------------------0------------0------------|
E |---0---------------4-----------------------------------------|

PRE-coro
e |-------------------------------------- x 2
B |-----------5-----------------5--------
G|-------6-----6-----------6-----6------
D |-----6---6-----6-------7---7-----7----
A |---4-------------4--------------------
E |---------------------5-------------5--

e ----------------------------------------0---|
B -----------5-----------------4----------2---|
G -------6-----6-----------4-----4--------2---|D -----6---6-----6-------4---4-----4------2---|
A ---4-------------4---2-------------2----0---|
E ----------------------------------------0---|

Verso 1

En verdad tu eras quien ponia el cielo azul
tu eras el interruptor
interruptor de luz enla pared
te apagaste y regrese a la obscuridaaa...

en verdad no se ni donde estoy parado
en verdad obscuro esta ya no veo nada
grito tu nombre en altavooooooooooz

precoro

se que hay cosas que aclarar
no se tienen queaclarar
no me importa sigue igual

coro
A E
solo asienta por favor
C#m
la cabeza si los planes han cambiado
B A
si los planes han cambiadoE
solo niega sin razon con la cabeza si
C#m
hoy se han quedado
B
si hoy se han quedado
x
pero por favor no me dejes dudando

solo x 2

verso 2

dices tu que note gusta que te ruege
luego me pediste que me arrodille a tus pies
ya sabias que lo haria
pues no existe cosa que me detenga para hacerte sentir bien

me dejaste escapar irresponsabilidad
siempre regresaba en el final

coro

AE
sonrie por favor
C#m
sonrie niña yo me quedare
B A
te juro yo me quedare
E
si quieres tu llorar
C#m
si tu lloras yo me ire al amanecer
Byo me ire al amanecer

A
pero por favor
E
no me dejes dudando
C#m
no me dejes dudando
B
no me dejes dudando
x
pero por favor...
tracking img