Rockñoiñpoiñoi

Solo disponible en BuenasTareas
  • Páginas : 13 (3201 palabras )
  • Descarga(s) : 0
  • Publicado : 16 de noviembre de 2010
Leer documento completo
Vista previa del texto
Here is an easier version for Starlight, for all those people who hate bar chords.

Capo 4

Intro:
G on Bass

G
Far Away
Am Em
This ship is taking me far away
C
Far away from the
G
Memories
Am Em C
Of all the people who care if I live or die

G
Starlight
Am Em
I will be chasing the starlight
CUntil the end of my
G
life
Am Em C
I don't know if it's worth it any more

G Am Em C
Hold you in my arms, I just wanted to
G Am Em C
Hold you in my arms

G
My life
Am Em
You electrify my life
C G
Let's conspire to ig-nite
Am Em C
All the souls that would die justto be alive

Am Dm Em
I'll never let you go if you promise not to
F C F
Fade away, never fade away

Em C G
Our hopes and expecta----tions
Em F G
Black holes and revela----tions
Em C G
Our hopes and expecta----tions
Em F G
Black holes and revela----tions

Gon Bass

G Am Em C
Hold you in my arms, I just wanted to
G Am Em C
Hold you in my arms

G
Far Away
Am Em
This ship is taking me far away
C
Far away from the
G
Memories
Am Em C
Of all the people who care if I live or die

Am Dm Em
I'll never let you go if you promise not toF C F
Fade away, never fade away

Em C G
Our hopes and expecta----tions
Em F G
Black holes and revela----tions (yeah)
Em C G
Our hopes and expecta----tions
Em F G
Black holes and revela----tions

G Am Em C
Hold you in my arms, I just wanted to
G Am Em C(no chord)
Hold you in my arms, I just wanted to hooold

Skillet - Comatose Deluxe Edition
Live Free or Let Me Die
Tabbed By U B the band
Tuning Drop B (Drop D and 1 1/2 steps down)

Legend
p-pull off b-bend /-slide up
x-scratch f-crescendo \-slide down

For tuning go tohttp://www.get-tuned.com/guitar_tuner.php

Intro: Guitar 1 (Clean with Delay)
C#|-----------------------------------------------------------------|
G#|--10----------------11-----10-----8-------10-/6----6------5------|
E|------------7----------------------------------------------------|
B|-----------------------------------------------------------------|F#|-----------------------------------------------------------------|
B|-----------------------------------------------------------------|

Intro Guitar 1: (distorted)
C#|-------17-17-17------------18-18-18-17-17-17--15-15-15-15--------|
G#|-----------------15-15-15----------------------------------------|
E|-----------------------------------------------------------------|B|-----------------------------------------------------------------|
F#|-----------------------------------------------------------------|
B|-----------------------------------------------------------------|

Intro Guitar 2: (distorted)
C#|-----------------------------------------------------------------|
G#|-----------------------------------------------------------------|
E|-----------------------------------------------------------------|B|--x--x-----------------------------------------------------------|
F#|--x--x---------------------------------------8p7---10p7----------|
B|--x--x--0-0--12--0-0--12p10---0---8p7--8p7-----------------------|

Intro Guitar 1 cont. (distorted)
C#|--17-17-17------------20-20-20--18-18-18--17-17--18-18-----------|
G#|------------15-15-15---------------------------------------------|...
tracking img