Scout

Solo disponible en BuenasTareas
  • Páginas : 3 (623 palabras )
  • Descarga(s) : 0
  • Publicado : 1 de diciembre de 2010
Leer documento completo
Vista previa del texto
Noche De Paz(TABLATURA)


1|-------0-------0-----5-5-2-3-3---0-0-3-2-0-|
2|-----3---3-0-3---3-0-5-5-3-3-3-3-1-1-1-----|3|----0------0-0-----0-5-5-2-4-4-0-0-0-0-----|
4|---0-------0-0-----0-0---0-0---0-----2-----|
5|---------------------------------3---------|6|-3---------3-3-----3-----------3-----------|

1|------------0-----0-0-3-2-0---0------|
2|------3---3---3-0-1-1-1-----3---3-0--|3|------0--0------0-0-0-0-----0-----0--|
4|------0-0-------0-----2-----0-----0--|
5|------------------3------------------|6|----------------3-----------------3--|


1|-5-5-8------3-7-3-------------------|
2|-5-5-7-10-7-3-8-0-3-0-3-1-----------|3|-5-5-7------4-7-0-----2---2-0-------|
4|-0---0------0-0-0-----0-----0-------|
5|------------------------------------|
6|----------------------2-----3-------|(TODO SE REPITE HASTA TERMINAR LA CANCION)


Noche de Paz(ACORDES)

G GNoche de paz, noche de amor;
D7 G
todo duerme al rredor,
C G
sólo velan murando la fazC G
de su niño en angélica paz,
D7 G
José y María en Belén,
G D7 GJosé y María en Belén.

G G
Noche de Paz, noche de amor;
D7 G
de Dios Hijo, luz de amor,...
tracking img