Spanish caravan

Solo disponible en BuenasTareas
  • Páginas : 4 (834 palabras )
  • Descarga(s) : 0
  • Publicado : 18 de agosto de 2012
Leer documento completo
Vista previa del texto
Spanish Caravan
The Doors

e ---------0---------0-------------0------0-------|
B-------4---4-------4-------------4------4-------|
G -----4-------4-----4-------------4------4-------|
D ---4-----------4---4-------------4------4--4----|
A-2-----------------2----------------------------|
E ------------------------------------------------|

e -0--0--------0--------0---------0--------0---------0----------|B -5----5--------5--------5---------5--------5---------5--------|
G -5------5--------5--------5---------5--------5---------5------|
D-5--------5--------5------------------5------------------5----|
A -----------------------------3------------------3-------------|
E--------------------------------------------------------------|

e ------------------------0-0-0-----0-0-0-----3-3-3-----2-2-2-----0-0-0----|
B-------------------------------------------------------------------------|
G ----0-0-0-----0-0-0------------0-----------------------------------------|
D -----------5---------5-------------------5---------5---------5-----------|A -4-----------------------------------------------------------------------|
E -------------------------------------------------------------------------|e ----0-0-0-----0-0-0-----0-0-0-----0-0-0----|
B -------------------------------------------|
G-------------------------------------------|
D -----------5-------------------5-----------|
A -4-------------------4---------------------|
E -------------------------------------------|...
tracking img