Tab zack wilde

Solo disponible en BuenasTareas
  • Páginas : 2 (349 palabras )
  • Descarga(s) : 0
  • Publicado : 18 de agosto de 2012
Leer documento completo
Vista previa del texto
h - hammer on
p - pull off
b - bend string up
r - release bend
/ - slide up
\ -slide down
~ - vibrato
Q=70
N.C.
4/4
Gtrs II, IV~~~~~~~~~~~~ ~~
|---------------------------------|------------------------|
|---------------------------------|------------13----------||-------10-12-12b13r(12)p10-------|------12s14----14s12----|
|-10h12---------------------12----|-(12)-------------------||---------------------------------|------------------------|
|---------------------------------|------------------------|


~~ ~~~~~~~~
|--------------------------|----------------||
|--------------------------|----------------|||-10h12-10--9h10-9---------|----------------||
|-------------------/12p11-|-12-/14-(14)----||
|--------------------------|----------------||
|--------------------------|----------------||Q=75
N.C.
Gtrs I, III
~~~~~~~ ~~~~~~~|---------------------------|------------------------------|
|-------13------------------|-------13---------------------||-12s14----14s12-10-(10)----|-12s14----14s12p10-12-(12)----|
|---------------------------|------------------------------|
|---------------------------|------------------------------|...
tracking img