Tablatura

Solo disponible en BuenasTareas
  • Páginas : 12 (2933 palabras )
  • Descarga(s) : 0
  • Publicado : 16 de agosto de 2012
Leer documento completo
Vista previa del texto
Artist: Megadeth
Album: Countdown to Extinction
Song: Symphony of Destruction

Tabbed by: John Mercer
E-mail: spacenumber6@hotmail.com

The whole tune is here,
timing...chances are it's off.
Solo timing, you bet your ass it's off.Intro

F E F E F E

You take a mortal man

Pm--- Pm---e------------------|------------------|-------------------------------|
B------------------|------------------|-------------------------------|
G------------------|------------------|-------------------------------|
D--------3-2--2----|-3-2--2-----------|-3-2--2------------------------|
A--------3-2--2----|-3-2--2-----------|-3-2--2------------------------|E-1-3-1--1-0--0----|-1-0--0-----1-3-1-|-1-0--0------------------------|




F E F E F E

An'put him in control

Pm---e------------------|------------------|--------------------------------|
B------------------|------------------|--------------------------------|
G------------------|------------------|--------------------------------|
D-3-2--2-----------|-3-2--2-----------|-3-2--2-------------------------|A-3-2--2-----------|-3-2--2-----------|-3-2--2-------------------------|
E-1-0--0-----------|-1-0--0-----1-3-1-|-1-0--0-------------------------|



F E F E F E

Watch him become a godPm---

e------------------|------------------|--------------------------------|
B------------------|------------------|--------------------------------|
G------------------|------------------|--------------------------------|D-3-2--2-----------|-3-2--2-----------|-3-2--2-------------------------|
A-3-2--2-----------|-3-2--2-----------|-3-2--2-------------------------|
E-1-0--0-----------|-1-0--0-----1-3-1-|-1-0--0-------------------------|






F E F E F EWatch people's heads a

Pm---

e------------------|------------------|--------------------------------|
B------------------|------------------|--------------------------------|G------------------|------------------|--------------------------------|
D-3-2--2-----------|-3-2--2-----------|-3-2--2-------------------------|
A-3-2--2-----------|-3-2--2-----------|-3-2--2-------------------------|
E-1-0--0-----------|-1-0--0-----1-3-1-|-1-0--0-------------------------|


A Ab G A Ab G...
tracking img