Taller del maestro

Solo disponible en BuenasTareas
  • Páginas : 16 (3938 palabras )
  • Descarga(s) : 29
  • Publicado : 16 de junio de 2010
Leer documento completo
Vista previa del texto
AL TALLER DEL MAESTRO
Intro:
C | |
e)|--------------0----------|-------------0-----------|
B)|--------1--------1-----1-|-------1--------1-----1--|
G)|-----0-------------------|----0--------------------|D)|-----------3--------2----|----------3--------2-----|
A)|--3----------------------|-3-----------------------|
E)|- -----------------------|-------------------------|

G
e)|------------0---------------| e)|---1---0-------|
B)|-------3--------3------3----| B)|-----------3---|
G)|----------------------------|G)|---------------| x2
D)|-----0----0---------0-------| D)|---------------|
A)|----------------------------| A)|-------0---2---|
E)|- 3-------------------------| E)|---3-----------|

EL INTRO ES IGUAL QUE LOS PRIMEROS VERSOS
C G
Aycomo me duele estar despierto y
e)|---------0-------| e)|---------0-------| e)|---------0-------|
B)|-----1-----1---1-| B)|-----1-----1---1-| B)|-----1-----1---1-|
G)|--0--------------| G)|--0--------------| G)|--0--------------|
D)|-------3-----2---| D)|-------3-----2---| D)|-------3-----2---|A)|3----------------| A)|3----------------| A)|3----------------|
E)|-----------------| E)|-----------------| E)|-----------------|
C
No poder cantar
e)|-1----0--------|
B)|-------------3-|
G)|---------------|
D)|---------------|
A)|------0------2-|E)|-3-------------|
G
Cómo expre- sarte sin palabras,
e)|---------0-------| e)|---------0-------| e)|---------0-------|
B)|-----1-----1---1-| B)|-----1-----1---1-| B)|-----1-----1---1-|
G)|--0--------------| G)|--0--------------|G)|--0--------------|
D)|-------3-----2---| D)|-------3-----2---| D)|-------3-----2---|
A)|3----------------| A)|3----------------| A)|3----------------|
E)|-----------------| E)|-----------------| E)|-----------------|

C
Me muero si no estás.
e)|-1----0--------|B)|-------------3-|
G)|---------------|
D)|---------------|
A)|------0------2-|
E)|-3-------------|
G
Que el tiempo pasa y todo cambia,
e)|---------0-------| e)|---------0-------|e)|---------0-------|
B)|-----1-----1---1-| B)|-----1-----1---1-| B)|-----1-----1---1-|
G)|--0--------------| G)|--0--------------| G)|--0--------------|
D)|-------3-----2---| D)|-------3-----2---| D)|-------3-----2---|
A)|3----------------| A)|3----------------| A)|3----------------|
E)|-----------------| E)|-----------------|E)|-----------------|
C
hoy lloro de soledad;
e)|---1----0--------|
B)|---------------3-|
G)|-----------------|
D)|-----------------|
A)|--------0------2-|
E)|---3-------------|
G...
tracking img