Tokio hotel

Solo disponible en BuenasTareas
  • Páginas : 2 (465 palabras )
  • Descarga(s) : 16
  • Publicado : 15 de abril de 2010
Leer documento completo
Vista previa del texto
Tuning: Standard w/ Capo on First
Chords Used:
Cadd9
e|----3------------|
B|----3------------|
G|-----------------|
D|--1--------------|
A|----2------------|
E|----x------------|

(For thischord just keep your fingers
in the Cadd9 position but remove you middle finger
and try muting that string, im also not sure what
this chord is so lets just call it,
Ab)
Ab
e|---3-------------|B|---3-------------|
G|-----------------|
D|-1---------------|
A|---x-------------|
E|---x-------------|

D
e|---2-------------|
B|----3------------|
G|---2-------------|D|-----------------|
A|---x-------------|
E|---x-------------|

C
e|-----------------|
B|---1-------------|
G|---0-------------|
D|---2-------------|
A|---3-------------|
E|---x-------------|

Be|---x-------------|
B|---x-------------|
G|---8-------------|
D|---9-------------|
A|---9-------------|
E|---7-------------|

Verse 1:
(Strum Everything Just Once until you get to “But they Never”then strum up and down)
Cadd9
You're automatic,
Ab
And your heart's like an engine
D Ab
I die with every beat
Cadd9
You're automatic,
Ab
And your voice is electric
DAb
Why do I still believe?
Cadd9
It's automatic
Ab
Everywhere in your letter
D Ab
A lie that makes me bleed
Cadd9
It's automatic
Ab
When you say things get betterD
But they never...

Strumming for chorus is pretty much Down, Down, Down,Up, Down,Up Down,Up (Please check
my video http://www.youtube.com/watch?v=nYPCXV9I0Dk or the original Tokio Hotel –Acoustic Cover for the Rolling Stones and watch Tom play)

Chorus-
C
There's no real love in you
Ab D
There's no real love in you
Ab C
There's no real love in you
Ab D
Why doI keep loving you

Cadd9
It's automatic,
Ab
Counting cars on a crossroad
D Ab
They come and go like you
Cadd9
It's automatic,
Ab
Wtching faces I don't know
D Ab...
tracking img