Trabajo

Solo disponible en BuenasTareas
  • Páginas : 21 (5059 palabras )
  • Descarga(s) : 0
  • Publicado : 7 de junio de 2011
Leer documento completo
Vista previa del texto
Adam song

|[pic]. |[pic]. |[pic]. |[pic]. |[pic]. |[pic]. |[pic]. |[pic]. |[pic]. |
|[pic]. |[pic]. |[pic]. |[pic]. |[pic]. | | | | |

Adam's Song

[Intro]e|-----------------------------------------------------------------|
B|-----------------------------------------------------------------|
G|-----------------------------------------------------------------|
D|----2------2------2-----2-----2-----2-----2-----2----------------| 2x
A|--0---3--0---3------3-----3-----3-----3-----3-----3--------------|
e|----------------3-----3-----1-----1-----0-----0------------------|
[Intro]
Riff1[abafado]Tocado Em power achord

D G Bm G
I never thought_ I'd die alone_ I laughed the lou_dest who'd have known_?
D G Bm G
I trace the cord_ back to the wall_ No wonder it was never plugged in at all_
D G Bm G
Itook my time_, I hur_ried up_ The choice was mine_ I didn't think enough_
D G Bm G
I'm too depressed_, to go on_ You'll be sor_ry_ when I'm gone_

Riff2a Interlude
e|-----------------------------------------------------------|
B|-----------------------------------------------------------|G|---0-----0-----2-----2-------------------------------------|
D|-----3-----3-0---3-0---3--2-----2-----2-----2--------------|2X
A|-3-----3----------------0---3-0---3-----3-----3------------|
D|------------------------------------1-----1----------------|

[Chorus1] [little dist.]
C Dm Am F
I ne__ver con_quered, rarely came - six_teen_ just held_ such better days
C DmAm F C [dist.]
Days when I__ still felt alive__ We couldn't wait__ to get outside_
Dm Am F C
The world_ was wide_, too late_ to try_ The tour was o_ver, we'd survived
Dm Am F Riff1 Riff1
I couldn't wait_ till I_ got_ home_ Topass the time_ in my room alone_

Riff1

C F Am F C
I ne_ver_ thought_ I'd die a_lone_ Another six_ months_ I'll be unknown_
F Am F C
Give all_ my things_ to all my friends_ You'll never set foot_ in my room again
FAm F A
You'll close it off_, board_ it up_ Remember the time_ that I spilled the cup_
F Am F Riff2b [guitar]
Of apple_ juice_ in_ the hall_ Please_ tell mom_ this is not her fault

Riff2b guitar+drum+bass]

Riff2b Interlude

[Repeat Chorus1] [no Riff2 atthe end]

[Bridge] [clean] Bassline:
D5 G5 A5 G5 D5 G5 A5 B5 G5
D5 G5 A5 G5 D5 G5 A5 B5 G5

D5 G5 D5 G5 D5 G5 A5 B5 G5

Riff3 Bridge beginning
e|-----------------------------------
B|-----------------------------------
G|-----0-----0-------------0-----0---
D|---4-----4------------4------4-----
A|-5-----5------------5------5-----5-D|-----------------------------------

Riff4 Bridge end
e|--------------------------------
B|-----3-----3-----3-----3-----3--
G|---2-----2-----2-----2-----2----
D|-0-----0-----0-----0-----0------
A|--------------------------------
D|--------------------------------

[Chorus2] [heavy dist.]
D5 E5 B5 G5 D5
I ne__ver con_quered,...
tracking img