Trabajo

Solo disponible en BuenasTareas
  • Páginas : 11 (2615 palabras )
  • Descarga(s) : 0
  • Publicado : 8 de octubre de 2010
Leer documento completo
Vista previa del texto
. | . | . | . | . | . | . | . | . |
. | . | | | | | | | |
Guns N' Roses
Yesterdays

Tono: D
Intro: D C G D C G

INTRO:


D
e|----------0h2------|----------0h2----|B|------3--------3---|------3----------|
G|----2---2-----2----|----2---2------0-|
D|--0----------------|--4-----------0--|
A|-------------------|-----------------|
E|-------------------|-----------------|

C
e|---------2--0-0----3------|
B|-----3----------3---3-----|G|-----0---------------0----|
D|-----2--------------------|
A|--3-----------------------|
E|--------------------------|


D D/F Cadd9 G
Yesterday there was so many things I was never told.
D D/F Cadd9G
Now that I'm startin' to learn I feel I'm growin' old.
D D/F
'Cause yesterday's got nothin' for me.
C G
Old pictures that I'll always see.
D D/F G
Time just fades the pages in my book of memories.D D/F Cadd9 G
Prayers in my pocket and no hand in destiny.



D D/F Cadd9 G
I'll keep movin' along with no time to plant my feet.
D D/F'Cause yesterday's got nothin' for me.
C G
Old pictures that I'll always see.
D D/F G
Some things could be better if we'd all just let them be.


Coro

A5 B5 C5G5
Ooh,____________yesterday's________ got nothin' for me.__________
A5 B5 C5 G5
Ooh,____________yesterday's________ got nothin' for me.__________

SOLO:
Bm G Bm G
Bm C#m D Ee|----------------------------------------------------------------
B|----------------------------12-------------------------------12-
G|-9~-9^-9/7-7/9-7---7----14~----14^-14-11------------------------
D|-----------------9---9-------------------14-12-14-14-14^-14~----
A|----------------------------------------------------------------E|----------------------------------------------------------------

e|-------------------------------------------------12-------------
B|-14-14-12~~-14-14^-14-14~-14-15^-15-12--------12----15-12-------
G|---------------------------------------13-----------------14----D|------------------------------------------14--------------------
A|----------------------------------------------------------------
E|----------------------------------------------------------------

e|-------------------12----12-------15----------------------------
B|----------------12----15----15/17----17/15----------------------...
tracking img