Acces high

Solo disponible en BuenasTareas
  • Páginas : 5 (1024 palabras )
  • Descarga(s) : 0
  • Publicado : 26 de octubre de 2009
Leer documento completo
Vista previa del texto
_
| |> /\ |\| |/| /| | |\ |_ |\|
| | \ /__\ | | | | \| | |/ |_ | |

Bass tab
Transcribed by G. Crisan ( crisan@shadow.net )

All textual notes refer to the tab ABOVE it. Any comments, suggestions,
or errors refering to the tab below that should be brought to my attention,
please e-mail me.

Tab explanations-----------------------------------------------------
> Accent | / Slide up
. Staccatto | \ Slide down
h Hammer-on/ pull off | : Repeat
† Harmonic | ~ slight bend
-----------------------------------------------------

Aces High ( Harris )
( From the album " Powerslave " )

11---------7---------11---------7---------11---------7--------|--------------11---------7---------11---------7---------11---------7--------|.-7--7-7-7-7-7
-9---999---5---777----9---999---5---555----9---999---5--7-7-7-|.-------------
--------------------------------------------------------------|--------------
Fast

-----------------------------------------|------------------------------------7--7--7--3--3-3-3-3-3--5--5-5-5-5-5-5--.|.----------------------------------
----------------------------------------.|.---557-7-7-7-557-7-7-7-557-7-7-7--
-----------------------------------------|-----------------------------------
Play 4 times Lyrics enter

-----------|-------------------------------------4-------|------------------------4----.|.--557-7-7-7-557-7-7-7-557-7-7-7-555----5---.|.------------------
-555---5--.|.-------------------------------------------.|.-5--7-7-7-7--10--7
-----------|---------------------------------------------|-------------------
Play 4 times Play 4 times

--------------------7-6-4-2-5-4-2-0--------------------------------------------------7--------------------------------------------------------7-----------
-7-7-7-----7-7-7-7--------------------5--7-7-7-7---10--7-7-7-7------7-7-7-7--
-----------------------------------------------------------------------------

--5-4-2-0-2----|----------------------------------------------------|--------
--------------.|.--------------------------------------------------.|---5--5---------------.|.--7--7-7-7-7--7-7-7-7-7-5-3--3-3-3-3--5--5-5-5-5--.|--------
---------------|----------------------------------------------------|--------
Play 4 times

-----------------------------------------------------------------------------
-5-5-5--5-5-5-5-5-3--1-1-1-1--3--3-3-3-3--5--5-5-5-5--5-5-5-5-5-3--1-1-1-1-1-
----------------------------------------------------------------------------------------------------------------------------------------------------------

-----------------------------------------------------------------------------
-3--3-7-3--5--5-5-5-5--5-5-5-5-5-3--1-1-1-1-1--3-3-3-3-3--5--5-5-5-5--5-5-5-5
-----------------------------------------------------------------------------
--------------------------------------------------------------------------------------------------------------.-----------------7-7-------.---------------
-5-3--1-1-1-1-1--3-3-8-3---7-10-10-7-7-7-10-9-7--------7-10-10-7-7-7-10-9-7--
------------------------------------------------10---------------------------
-----------------------------------------------------------------------------

----------------.------------------7-7--------.-----------------.----------.-----7-7---7-10-10-7-7-7-10-9-7----------7-10-10-7-7-7-10-9-7----7----7-10-10-
-10----------------------------10----------------------------10--------------
-----------------------------------------------------------------------------

-----------------7-7--------.-----------------------------.------------------
-7-7-7-10-9-7---------7-10-10-7-7-7-10-9-7----7-7---7-10-10-7-7-7-10-9-7----7...
tracking img