Acordes de canciones interesantes

Solo disponible en BuenasTareas
  • Páginas : 4 (875 palabras )
  • Descarga(s) : 0
  • Publicado : 17 de noviembre de 2011
Leer documento completo
Vista previa del texto
MORI - TRANZAS

Desliz = / Martilla = v Se tocan juntas = ()

G1 G2

E------(3)----3------(2)-|-----(3)----3-----(2)--|B----------3-----3-------|---------3-----3-------|
G------------0-----0-----|------------0----0-----|
D------------------------|-----------------------|
A------------------------|0/3--(3)----------(3)--|E-0/3--(3)-----------(3)-|-----------------------|

G1 G2

E------(3)----3------(2)-|-----(3)----3-----(2)--|
B----------3-----3-------|---------3-----3-------|G------------0-----0-----|------------0----0-----|
D------------------------|-----------------------|
A--3/5-------------------|-----(3)----------(3)--|
E------(3)-----------(3)-|-3/5-------------------||

Antes de dartelos acordes, debes tener en cuenta que:
La primera estrofa la tienes que digitar, y las otras
dos, son con ritmo: G1 y G2 son los del intro, nada más,
que no tocas los deslices ni la martillada...Te explico como se toca el final de cada estrofa:

Em | A | D |
E--0-----0---|--0-----0----|--2-----2-------2/3/2-|B------0---0-|------2---2--|------3---3-----------|
G----0-------|----2--------|----2-----------------|
D------------|-------------|--0-------------------|
A------------|--0----------|----------------------|E--0---------|-------------|----------------------|

G1 G2
Y preguntas por mí, que como me va,
G1 G2
a ver como tomé, tantas cosas que hablé de lasoledad,
Em
que si estoy bien o mal
A
que si puedo reír
D
o si puedo llorar.

G1 G2
Y preguntas por mi, porcuriosidad,
G1
y quisiera decir que te extraño a rabiar,
G2
que ya no puedo más,
Em
o se me pasará,
A
pero ya no lo sé,
D
yo...
tracking img