Acordes de palomita cuculi

Solo disponible en BuenasTareas
  • Páginas : 3 (695 palabras )
  • Descarga(s) : 9
  • Publicado : 27 de junio de 2010
Leer documento completo
Vista previa del texto
kAntologia

Palomita cuculí

0:25 0:27
F#m6
e---------------------------------------------B----------------10----10--12s14--14AV--------
G-11-----11--13-----13------------------------
D-----11--------------------------------------
A-12--11-12--11-------------------------------E---------------------------------------------

0:29 0:32 0:34 0:36 0:38
Emaj7 C#m Bmmej4
e-10s12-12---------------------------*-12-12-12--14-1212-------B----------14-14--12-12----12--12s14-*-------------------14-12-
G-----------------------14-----------*-------------------------
D------------------------------------*-------------------------A------------------------------------*-------------------------
E------------------------------------*-------------------------

0:39 0:42
F#me-----------------------------*
B-10s12-12-12--14-12----------*
G-------------------14-13-11--*
D-----------------------------*
A-----------------------------*
E-----------------------------*

0:450:44 0:45
Emaj7 F#m C#m F#m
e---------------------------------------------
B--------------------------------14-----------G-131413--14-13-11---13-14--16---------16-14--
D---------------------------------------------
A---------------------------14---16----14-12--
E---------------------------------------------
______________________________________________--mas-rapido--
3segundos 0:50
e-------------------14TA-----
B----------------------------
G-------6---6----------------
D------7--9--9-7-------------A-9-11-----------9-----------
E----------------------------
____________________________________________________________

__

F#mmej4 F#m F#m6 Bmmej4
Cuando el amor se termina .y el...
tracking img