Angel of death

Solo disponible en BuenasTareas
  • Páginas : 3 (744 palabras )
  • Descarga(s) : 4
  • Publicado : 18 de mayo de 2010
Leer documento completo
Vista previa del texto
Angel Of Death

Guitar Solo
Q=232
Eb5 A5
Gtrs I, II
| |||| | | | ||| | |
/ o/// / / / /// / /

Gtr III
~~~~~~~~~~~|-21b24-----21b24--(21)----21-18h21p|
|-----------------------------------|
|-----------------------------------|
|-----------------------------------|
|-----------------------------------||-----------------------------------|

F5
| | | | | | | | ||| | |
/ o / / / / / / /// / /|-18----18h21-18h21-18h21b24==(21)r===(21)-18h21p=|
|----21-------------------------------------------|
|-------------------------------------------------|
|-------------------------------------------------||-------------------------------------------------|
|-------------------------------------------------|

A5
| | | | | | | | | | | | |
/ o/ / / / / / / / / / /

|-18-----------------------------------------|
|----21-18-19-18h19p18-----------------------|
|----------------------20-17h18h20--18p17----||-----------------------------------------20-|
|--------------------------------------------|
|--------------------------------------------|

Gb5
| | | | | | | | | |
/o / / / / / o o /

~~~~~~~~~~~~~~
|-------------------------------------|
|-------------------------------------|
|-------------------------------------||-17-18-20--17-20-17-17-(17)--(17)\---|
|-------------------------------------|
|-------------------------------------|

Eb5 A5
| | | | | | | | | | | ||
/ o / / / / / / / / / / /

|--------------------------------------------|
|--------------------------------------------|
|--------------------------------------------|...
tracking img