Arjona: desnuda

Solo disponible en BuenasTareas
  • Páginas : 5 (1148 palabras )
  • Descarga(s) : 0
  • Publicado : 11 de octubre de 2010
Leer documento completo
Vista previa del texto
Arjona desnuda

| Gtr I
|
|---------------|---------------|---------------|---------------|---------------|---------------|---------------|
|-------3-----3-|-------3-------|-------3-----3-|-------3-------|-------3-------|-------3-------|-------3-------|
|-----0---0-----|---0-----0---0-|---0-----0-----|---0-----0---0-|---0-----0---0-|---2-----2---0-|---0-----0---0-||---0-------0---|-----2-----2---|-----0-----0---|-----2-----2---|-----0-----0---|-----0-----0---|-----2-----0---|
|---------------|-3-------------|---------------|-3-------------|---------------|---------------|---------------|
|-3-------------|---------------|-3-------------|---------------|-3-------------|-2-------------|-0-------------|
|
|
| Gtr II
||-----------------------------------------------|----------/3---|-3-------------|/3-2-2-2-------|---------------|
|-----------------------------------------------|----------/3---|-3-0-0-0-1-3---|/5-3-3-3-5-3---|/5-3-0---------|
|-----------------------------------------------|---------------|---0-0-0-2-4---|---------5-4---|/5-4-0---------|
|-----------------------------------------------|---------------|---------------|---------------|---------------||-----------------------------------------------|---------------|---------------|---------------|---------------|
|-----------------------------------------------|---------------|---------------|---------------|---------------|

| Gtr I

|---------------|---------------|---------------|---------------|---------------|---------------||-------3-------|-------3-------|-------3-------|-------3-------|-------------3-|-(3)-----------|
|---0-----0---0-|---0-----0---0-|---2-----2---0-|---0-----0-----|-------------0-|-(0)-----------|
|-----2-----2---|-----0-----0---|-----0-----0---|-----2-----0---|-2-----0-----2-|-(2)-----------|
|-3-------------|---------------|---------------|---------------|-3-----2-----0-|-(0)-----------||---------------|-3-------------|-2-------------|-0-------------|---------------|---------------|
|
|
| Gtr II
|----------/3---|-3-------------|/3-2-2-2-------|---------------|
|----------/3---|-3-0-0-0-1-3---|/5-3-3-3-5-3---|/5-3-0---------|
|---------------|---0-0-0-2-4---|---------5-4---|/5-4-0---------|
|---------------|---------------|---------------|---------------|
|---------------|---------------|---------------|---------------||---------------|---------------|---------------|---------------|

| Gtr I
| No es ninguna aberración sexual Pero me gusta verte andar en cueros.
compás de tus pechos
|---------------|---------------|---------------|---------------|---------------|---------------|---------------||-------3-------|-------3-------|-------3-------|-------3-------|-------3-------|-------3-------|-------3-------|
|---0-----0---0-|---2-----2---0-|---0-----0---0-|---0-----0---0-|---0-----0---0-|---0-----0---0-|---2-----2---0-|
|-----0-----0---|-----0-----0---|-----2-----0---|-----2-----2---|-----0-----0---|-----0-----0---|-----0-----0---|
|---------------|---------------|---------------|-3-------------|---------------|---------------|---------------||-3-------------|-2-------------|-0-------------|---------------|-3-------------|-3-------------|-2-------------|
|
|
| Gtr II
|
|-------------------------------------------------------------------------------|---------------|-7---7---------|
|-------------------------------------------------------------------------------|---------------|---------------||-------------------------------------------------------------------------------|-------------7-|---------------|
|-------------------------------------------------------------------------------|---------------|---------------|
|-------------------------------------------------------------------------------|---------------|---------------|
|-------------------------------------------------------------------------------|---------------|---------------|

| Gtr I
|...
tracking img