Cancion jajajjaja

Solo disponible en BuenasTareas
  • Páginas : 5 (1101 palabras )
  • Descarga(s) : 0
  • Publicado : 3 de mayo de 2011
Leer documento completo
Vista previa del texto
Sweet Child O` Mine
Guns N` Roses



Intro: (Gtr. 1) Riff A
|-----------------15---------14-------|
|-----15------------------------------|
|---------14--12------14-----------14-|
|%-12--------------------------------%||-------------------------------------|
|-------------------------------------|

|------------------15--------14-------|
|------15-----------------------------|
|---------14--12--------14---------14-|
|%-14--------------------------------%||-------------------------------------|
|-------------------------------------|

end of Riff A

|----------------------15----------14--------|
|---------15---------------------------------|
|-----12-------14--12--------14-----------14-|
|%------------------------------------------%||--------------------------------------------|
|--------------------------------------------|



|---------------------15-------14------|
|-------15-----------------------------|
|-----------14--12--------14--------14-||%-12---------------------------------%|
|--------------------------------------|
|--------------------------------------|

Gtr. 3 (acous. gtr.) Rhy.Fig.1 w/Riff A
D Cadd9
|-2-------2----------------2-|-3p2--2--3-----2---------|-0--------0------|-3-------3----------------3-|-3-------3---------3-----|-1--3-----1------
|-2-------2----------------2-|-2-------2---------2---2-|-0--------0------
|-0-------0----------------0-|-0---------------------0-|-2--------2------
|----------------------------|-------------------------|-3--------3------|----------------------------|-------------------------|-----------------

G
-----|--------------------------|------------------------|-------------------
-----|-3---1-----------1--------|-3---------0------------|--3-----3--3--3--3------|-0---------0------------0-|-0------0--0------------|--2-----2--2--2--2-
-----|-2------------------------|-0---------0------------|--0-----0--0--0--0-
-----|-3------------------------|-2---------2------------|-------------------
-----|--------------------------|-3---------3------------|-------------------

D end of Rhy.Rig.1-------|--3--2--0--2------------0-|
-3--3--|--3--3--3--3------------3-|
-2--2--|--2--2--2--2------------2-|
-0--0--|--0--0--0--0------------0-|
-------|--------------------------|
-------|--------------------------|

w/Riff A (1st 6 bars only)&Rhy.Fig.1Guitar 3(acoustic)
C
|------2-----2--2-----2-|--2-----2--3--2--0----|-0------0---0-|--0-----0--3--2--
|------3-----3--3-----3-|--3-------------------|-1------1---1-|--1--------------
|------2-----2--2-----2-|--2-------------------|-0------0---0-|--0--------------...
tracking img