Cancion "stairway to heaven"

Solo disponible en BuenasTareas
  • Páginas : 10 (2344 palabras )
  • Descarga(s) : 0
  • Publicado : 2 de febrero de 2012
Leer documento completo
Vista previa del texto
INTRO:
Am E6/G# C/G Bm7 FMaj G/B A5
e-----5--7----7--8----8--2---2-0-------0---------------|------------------
B----5-----5-------5-------3-----1---1---1-------------|------------------
G---5-------5--------5------2------2-------2---0--2-2--|------------------
D--7-----6-------5-------4-----3--------------------2--|------------------A----------------------------------------------2--0-0--|0--3(A)8--7-------
E------------------------------------------------------|------------------
ESTA INTRODUCCION SE REPITE UNA VEZ MAS HASTA LA LINEA
2°PARTE
G/B C Bm7 FMaj7 G/B C G Dsus4-D
e-------------0---2-----2--0------0------|---------------3----3----3(A)2-2-B-------------------3--------1-----------|------1------1--------------3---3
G------------0--------2--------2----2----|---------0--------4-------2------
D----------2------4--------3-------------|-----------2-------5------0-----0
A--0-2--3------------------------------0-|0--2--3--------------------------
E----------------------------------------|----------------3----------------

SE REPITE LAPARTE QUE ESTA ANTES DE ESTA LINEA, DESPUES TOCA ESTO:

G/B C D FMaj7
e---------------------3----3--0-0-0--------------------------------------
B--------------1--------3-----1-1-1--------------------------------------
G------------0------------2---2-2-2--------------------------------------D----------2----------0-------3-3-3--------------------------------------
A--0-2---3---------------------------------------------------------------
E------------------------------------------------------------------------
.
E-------5-7-----7-|-8-----8-2-----2-|-0---------0-----|-----------------|
B-----5-----5-----|---5-------3-----|---1---1-----1---|-0-1-1-----------|
G---5---------5---|-----5-------2---|-----2---------2-|-0-2-2-----------|D-7-------6-------|-5-------4-------|-3---------------|-----------------|
A-----------------|-----------------|-----------------|-2-0-0---0--/8-7-|
E-----------------|-----------------|-----------------|-----------------|

E---------7-----7-|-8-----8-2-----2-|-0---------0-----|-----------------|
B-------5---5-----|---5-------3-----|---1---1-----1---|-0-1-1-----------|G-----5-------5---|-----5-------2---|-----2---------2-|-0-2-2-----------|
D---7-----6-------|-5-------4-------|-3---------------|-----------------|
A-0---------------|-----------------|-----------------|-2-0-0-------0-2-|
E-----------------|-----------------|-----------------|-----------------|

E-------0-2-----2-|-0-----0----------|----------2-----2--3-----3-|B-----------3-----|---1-----0h1------|-1-----1-----3-------0-----|
G-----0-------2---|-----2-------2----|---0-----------2-------0---|
D---2-----0-------|-3----------------|-----2----4----------------|
A-3---------------|---------0----0-2-|-3-------------------------|
E-----------------|------------------|-------------------3-------|

E---------2-----2-|-0-----0----------|---------------2-|-0-0-0-----------|B-------1---3-----|---1-----0-1------|-------1-----3---|-1-1-1-----------|
G-----0-------2---|-----2-------2----|-----0-----2-----|-2-2-2-----------|
D---2-----0-------|-3----------------|---2-----0-------|-3-3-3-----------|
A-3---------------|---------0----0-2-|-3---------------|-----------------|
E-----------------|------------------|-----------------|-----------------|E-------5-7-----7-|-8-----8-2-----2-|-0---------0-----|-----------------|
B-----5-----5-----|---5-------3-----|---1---1-----1---|-0-1-1-----------|
G---5---------5---|-----5-------2---|-----2---------2-|-0-2-2-----------|
D-7-------6-------|-5-------4-------|-3---------------|-----------------|
A-----------------|-----------------|-----------------|-2-0-0-----------|
E-----------------|-----------------|-----------------|-----------------|...
tracking img