Charles darwin

Solo disponible en BuenasTareas
  • Páginas : 2 (415 palabras )
  • Descarga(s) : 0
  • Publicado : 13 de noviembre de 2011
Leer documento completo
Vista previa del texto
D: X | | 2 3 2

A: | | 2 2 2 |

A6: | | 2 2 2 2

Bm7: 2 2 4 2 3 5

G7+: X X | | | 2

* * * B E L L A * * *

* Lorenzo Cherubini (Jovanotti) *

INTRO:
D | A | Bm7 | G7 |A6 | x2

Em7 D7
E gira gira il mondo
Em7 D7
e gira il mondo e giro te
Em7 D7
mi guardi e non rispondo
Em7 D
ah,perche' risposta non c'e'

nelle parole

D
bella
A Bm7
come una mattina d'acqua cristallina
G7 A6 D
come una finestra chemi illumina il cuscino
A
calda come il pane
Bm7
ombra sotto un pino
G7 A6
mentre t'allontani stai con me forever.

introE|---------------------------------------------------------|
B|---------------------------------------------------------|
G|---------------------------------------------------------|D|-------------------------3-------------------------------|
A|-/10\--------6-5-3---------5-6---------------------------|
D|-/10\--0-0-0-------0-0-0-------0-0-0-8-5-4/7-8-7-10-7-8--|
pm..... ..........

E|-------------------------------------------------------|
B|-------------------------------------------------------|
G|-------------------------------------------------------|D|--------4h5p4---------8-7-5-4h5p4---4------------------|
A|--------------5-------------------6---5-6-3-5---3------|
D|--0-0-0---------0-0-0-------------------------6---5-6--|
pm..........

(repeat three times) (play for last time)
E|------------------------------------------------|----------------------|B|------------------------------------------------|----------------------|
G|------------------------------------------------|----------------------|
D|------------------------------------------------|----------------------|...
tracking img