Ensayo

Solo disponible en BuenasTareas
  • Páginas : 2 (278 palabras )
  • Descarga(s) : 0
  • Publicado : 28 de agosto de 2012
Leer documento completo
Vista previa del texto
Intro

C#(9) F#m E D A
e--14^--13^--14^--16^--17^--14^--17^--16^--19^--16^--14^--17^--14^--12^--B--15^--14^--14^--17^--19^--14^--19^--17^--21^--17^--16^--19^--16^--14^--

G------------------------------------------------------------------------



D Dm A F#7 BmE A
e--12-12--10-10-10-12-10-12--9--9-10-12-10-9--7---------------------5---

B--14-14--10-10-10-10-10-10-10-11-------------7--9-9-10-12-10-9-12--5---G---------11-11-11-10-10-10--9--9-------------7---------------------6---





F#7 Bm
Meditando yo,

E7 A
me di cuenta que,

F#7 Bm
aunque este sinti,

E7 A
a tu lado voy.



CORO

D Dm A
Como un duende, yo sigo, tus pasos,

F#7 Bm
con mi mente voy siempre contigo,E7 A
ahuyentando pecado y fracaso,

F#7 Bm
evitando que el negro destino,

E7 A
se te acerque y teatrape en sus brazos.





Porque quiero, que a tu alma de santa,

no contagie la maldad del mundo,

porque ahora, que te siento mía,

cada vez es mi amor mas profundo.CORO II

Como un duende, yo sigo, tus pasos,

para ver si tan solo eres mía,

o repartes tu amor en pedazos.



SOLO (1:41)



F#7 Bm E A F#7 Bm EA
e--18^--19^--16^--17^--14^--10^--12^--12^--

B--19^--21^--17^--17^--15^--12^--14^--14^--

G------------------------------------------



Porque quiero...



CORO IIpara ver si tan solo eres mía,

Riff 1 A
o repartes tu amor, en pedazos.



Riff 1

e--19--16--12--

B--21--17--12--

G----------13--
tracking img