Fear of the dark

Solo disponible en BuenasTareas
  • Páginas : 17 (4062 palabras )
  • Descarga(s) : 0
  • Publicado : 2 de febrero de 2011
Leer documento completo
Vista previa del texto
FEAR OF THE DARK
As recorded by Iron Maiden
(From the 1992 Album FEAR OF THE DARK)

Words and Music by Steve Harris

Gtr I (E A D G B E) - Distortion
Gtr II (E A D G B E) - Distortion
Gtr III (E A D G B E) - CleanGtr IV (E A D G B E) - Clean
Gtr V (E A D G B E) - Distortion

Intro
Q=160
D C
4/4
Gtr I
E E E E E E E E E E E E E E E E E E E E E E E E E E E E E E E E||------------------|-----------------|-----------------|------------------||
||o-------------5-5-|-6-6-5-5-----5-5-|-----------------|-5-5---------5---o||
||--7-7-----7-7-----|---------7-7-----|-5-5-----5-5-7-7-|-----7-7-5-5---5--||
||------7-7---------|-----------------|-----5-5---------|------------------||||o-----------------|-----------------|-----------------|-----------------o||
||------------------|-----------------|-----------------|------------------||
|
| Gtr II
| PM------------------------------------------------------------------|
| E E E E E E E E E E E E E E E E E E E E E E E E E E E E E E E E||------------------|-----------------|-----------------|------------------||
||o-----------------|-----------------|-----------------|-----------------o||
||------------------|-----------------|-----------------|------------------||
||------------------|-----------------|-----------------|-------------2----||||o-5-5-----5-5-7-7-|-8-8-7-7-5-5-7-7-|-3-3-----3-3-5-5-|-7-7-5-5-3-3---3-o||
||------5-5---------|-----------------|-----3-3---------|------------------||


A G
E E E E E E E E E E E E E E E E E E E E E E E E E E E E E E E E|-----------------|-------------------|-----------------|-----------------|
|-----------------|-------------------|-----------------|-----------------|
|-----------------|-------------------|-----------------|-----------------|
|-7-7-----7-7-9-9-|-10-10-9-9-7-7-9-9-|-5-5-----5-5-7-7-|-9-9-7-7-5-5-9-5-|
|-----7-7---------|-------------------|-----5-5---------|-----------------||-----------------|-------------------|-----------------|-----------------|
|
| PM--------------------------------------------------------------------|
| E E E E E E E E E E E E E E E E E E E E E E E E E E E E E E E E
|-----------------|-------------------|-----------------|-----------------||-----------------|-------------------|-----------------|-----------------|
|-----------------|-------------------|-----------------|-----------------|
|-----------------|-------------------|-5-5-----5-5-7-7-|-9-9-7-7-5-5-9-5-|
|-0-0-----0-0-2-2-|--3--3-2-2-0-0-2-2-|-----5-5---------|-----------------||-----0-0---------|-------------------|-----------------|-----------------|


H.=H
A F A
E E E E E E E E E E E E E E E E E E E E E E E E E E E E E E E E
|-----------------|-------------------|-----------------|-----------------|...
tracking img