Galileo

Solo disponible en BuenasTareas
  • Páginas : 7 (1606 palabras )
  • Descarga(s) : 0
  • Publicado : 25 de enero de 2011
Leer documento completo
Vista previa del texto
| | | | | | | |
E-|------------------------|------------------------|
B-|-----1-----1-----1-----1|-----1-----1-----1-----1|
G-|---2-----2-----2-----2--|---2-----2-----2-----2--|
D-|-2-----2-----2-----2----|-2-----2-----2-----2----|
A-|-0----------------------|------------------------|
E-|------------------------|-3----------------------|

3 2 13
4
~~~~~~~~~~~~~~~~~~~~~~~~~~~~~~~~~~~~~~~~~~~~~~~~~~~~~
I... III..
| | | | | | | |
E-|------------------------|------------------------|
B-|-----1-----1-----3-----3|-----3-----1-----0-----0|
G-|---2-----2-----3-----3--|---1-----2-----2-----1--|
D-|-3-----3-----3-----3----|-2-----2-----2-----0----|A-|-------------5----------|------------------------|
E-|-1----------------------|-0-----------0----------|

3 2 1 1 2 1 4 2 3 1 1
1 3
~~~~~~~~~~~~~~~~~~~~~~~~~~~~~~~~~~~~~~~~~~~~~~~~~~~~~~
II
| | | | | | | |
E-|-------------------0----0|--0-----------------0----0|B-|-----------1-----1-----1-|------3-----3-----3-----3-|
G-|-2---2---2-----2-----2---|----4-----4-----4-----4---|
D-|-2-2---2-----2-----2-----|--------2-----2-----2-----|
A-|-0-----------------------|--------------------------|
E-|-------------------------|--0-----------------------|

3 1 3 2 1
2
~~~~~~~~~~~~~~~~~~~~~~~~~~~~~~~~~~~~~~~~~~~~~~~~~~~~~~~~
| | | | | | ||
E-|-0-----------1----------|-0-----------------3----|
B-|-----1-----1-----3-----3|-----1-----1-3---0-----0|
G-|---2-----2-----2-----2--|---0-----0-----0-----0--|
D-|-2-----2-----0-----3----|-2-----2-----3-----3----|
A-|-0----------------------|------------------------|
E-|------------------------|-3-----------3----------|

2 3 1 1 2 4 3 2 1 3 33 2 2
1
~~~~~~~~~~~~~~~~~~~~~~~~~~~~~~~~~~~~~~~~~~~~~~~~~~~~~~~
V........................
| | | | | | | |
E-|------------------------|--------------------------|
B-|-1---1-----1-----1-----1|--------------------------|G-|---0-----0-----0-----0--|-----5-----5-----5-8---5h8|
D-|-2-----2-----2-----2----|---5-----5-----5-----5----|
A-|-3----------------------|-6-----6-----6-----6------|
E-|------------------------|-8------------------------|

1 2 1 1 4 4
2 4 2
3
~~~~~~~~~~~~~~~~~~~~~~~~~~~~~~~~~~~~~~~~~~~~~~~~~~~~~~~IV.....................................I.....
| | | | | | | |
E-|-------------------------|------------------------|
B-|-4-----------------4----4|-4---------------1-3---1|
G-|-----6-----6-----6-----6-|-----5-----5---2-----2--|
D-|---5-----5-----5-----5---|---6-----6---1-----0----|
A-|-------6-----6-----6-----|-6-----6----------------|E-|-6-----------------------|-4-----3-----2----------|

1 2 4 1 3 1 3 1 4 2 1
3 3 1 2
1
~~~~~~~~~~~~~~~~~~~~~~~~~~~~~~~~~~~~~~~~~~~~~~~~~~~~~~~
III............ III........
| | | | | | | |
E-|------------------------|------------------------|
B-|-3-----------4-----1----|-3-----------3----------|G-|-----3-----3---0-2---0-2|-----3-----3-----2-----2|
D-|---5-----5---1-----1----|---5-----5-----4-----4--|
A-|-5-----5-----3----------|-5-----5-----5-----5----|
E-|-3----------------------|------------------------|

1 4 1 4 2 2 3 1 4 1 2 3 1
3 1 1 3 4
1 3
~~~~~~~~~~~~~~~~~~~~~~~~~~~~~~~~~~~~~~~~~~~~~~~~~~~~~~~...
tracking img