Hola

Solo disponible en BuenasTareas
  • Páginas : 2 (358 palabras )
  • Descarga(s) : 55
  • Publicado : 26 de noviembre de 2009
Leer documento completo
Vista previa del texto
MARIPOSA TRAICINERA
1. -------------8-8-8----8--6---|-----------6-6-6----6--------|
2. --9--9--9--9-9-9-9--9-9--8-8-|-8-8-8-8-8-8-8-8-8--8-8--9-6-|
3.-10-10-10-10-------10------8-|-8-8-8-8-8-------8----8-10-6-|
4. -----------------------------|-----------------------------|
5. -----------------------------|-----------------------------|
6.-----------------------------|-----------------------------|
1. --------------------------------|------------|
2. -----9--9--9----9---8---6-------|------------|
3. -/10--10-10-10----8---6---6-8-5-|------------|
4.------------------------------6-|-/6-5-------|
5. --------------------------------|------8-6-8-|
6. --------------------------------|------------|
Em D C G
Em D
Eres como una mariposa, vuelas yte posas
C
vas de boca en boca
G
fácil y ligera de quien te provoca
Em D
Yo soy raton de tu ratonera
C
trampa que no mata pero no libera
G
vivo muriendo prisionero.
CD G
Mariposa traicionera
Em
todo se lo lleva el viento
C D B7
mariposa no regreso.
E
Ay, mariposa de amor, mi mariposa de amor,
B
ya no regreso contigo
F#m * B7
ay,mariposa de amor, mi mariposa de amor,
E
nunca jamas junto a ti
vuela amor, vuela dolor,
A
y no regreses a un la'o
E
y ábrete de flor en flor
B7 E A
seduciendo a los pistilosE
y vuela cerca del sol
B7 E
pa' que sientas lo que es dolor.
OTRA VEZ EL INTRO
Con los mismos acordes de la primera estrofa:
Ay mujer, como haces daño
pasan los segundo cualsi fueran años
mira estos celos me están matando.
Ay mujer, que fácil eres
abres tus alitas, muslos de colores
donde se posan tus amores.
C D G
Mariposa traicionera
Em
todo selo lleva el viento
C D B7
mariposa no regreso.
E
Ay, mariposa de amor, mi mariposa de amor,
B
ya no regreso contigo
F#m * B7
ay, mariposa de amor, mi mariposa de amor,
E...
tracking img