Intro de rola

Solo disponible en BuenasTareas
  • Páginas : 8 (1833 palabras )
  • Descarga(s) : 0
  • Publicado : 12 de diciembre de 2010
Leer documento completo
Vista previa del texto
Intro
E-------5-7-----7-|-8-----8-2-----2-|-0---------0-----|-----------------|
B-----5-----5-----|---5-------4-----|---1---1-----1---|-0-1-1-----------|
G---5---------5---|-----5-------2---|-----2---------2-|-0-2-2-----------|
D-7-------6-------|-5-------4-------|-3---------------|-----------------|
A-----------------|-----------------|-----------------|-2-0-0---0--/8-7-|E-----------------|-----------------|-----------------|-----------------|
 
E---------7-----7-|-8-----8-2-----2-|-0---------0-----|-----------------|
B-------5---5-----|---5-------4-----|---1---1-----1---|-0-1-1-----------|
G-----5-------5---|-----5-------2---|-----2---------2-|-0-2-2-----------|
D---7-----6-------|-5-------4-------|-3---------------|-----------------|A-0---------------|-----------------|-----------------|-2-0-0-------0-2-|
E-----------------|-----------------|-----------------|-----------------|
 
E-------0-2-----2-|-0-----0---------|---------3-----3-|-3^2-2-2---------|
B-----------3-----|---1-----0-------|-1-----1---0-----|-----3-3---------|
G-----0-------2---|-----2-----2-----|---0---------0---|-----------------|D---2-----0-------|-3---------------|-----2-----------|-0---0-0---------|
A-3---------------|---------0---0-2-|-3---------------|-------------0-2-|
E-----------------|-----------------|---------3-------|-----------------|
 
E---------2-----2-|-0-----0---------|---------------2-|-0-0-0-----------|
B-------1---3-----|---1-----0-------|-------1-----3---|-1-1-1-----------|
G-----0-------2---|-----2-----2-----|-----0-----2-----|-2-2-2-----------|D---2-----0-------|-3---------------|---2-----0-------|-3-3-3-----------|
A-3---------------|---------0---0-2-|-3---------------|-----------------|
E-----------------|-----------------|-----------------|-----------------|
                                                               End Intro.
                                                              There’s a
 
Verse 1E-------5-7-----7-|-8-----8-2-----2-|-0---------0-----|-----------------|
B-----5-----5-----|---5-------4-----|---1---1-----1---|-0-1-1-----------|
G---5---------5---|-----5-------2---|-----2---------2-|-0-2-2-----------|
D-7-------6-------|-5-------4-------|-3---------------|-----------------|
A-----------------|-----------------|-----------------|-2-0-0-----------|E-----------------|-----------------|-----------------|-----------------|
lady who’s sure ....               ....the stairway to heaven       When
 
E-------5-7-----7-|-8-----8-2-----2-|-0---------0-----|-----------------|
B-----5-----5-----|---5-------4-----|---1---1-----1---|-0-1-1-----------|
G---5---------5---|-----5-------2---|-----2---------2-|-0-2-2-----------|D-7-------6-------|-5-------4-------|-3---------------|-----------------|
A-----------------|-----------------|-----------------|-2-0-0-------0-2-|
E-----------------|-----------------|-----------------|-----------------|
she gets there....                  ....get what she came for
 
E---------2-----2-|-0-----0---------|---------3-----3-|-3^2-2-2---------|
B-------1---3-----|---1-----0-------|-1-----1---0-----|-----3-3---------|G-----0-------2---|-----2-----2-----|---0---------0---|-----------------|
D---2-----0-------|-3---------------|-----2-----------|-0---0-0---------|
A-3---------------|---------0---0-2-|-3---------------|-------------0-2-|
E-----------------|-----------------|---------3-------|-----------------|
Ooh               ooh....            ....the stairway to heaven   There’s
 E-------0-2-----2-|-0-----0---------|---------2-----2-|-0-0-0-----------|
B-----------3-----|---1-----0-------|-1-----1---3-----|-1-1-1-----------|
G-----0-------2---|-----2-----2-----|---0---------2---|-2-2-2-----------|
D---2-----0-------|-3---------------|-----2---0-------|-3-3-3-----------|
A-3---------------|---------0---0-2-|-3---------------|-----------------|
E-----------------|-----------------|-----------------|-----------------|...
tracking img