Julio jaramillo

Solo disponible en BuenasTareas
  • Páginas : 7 (1543 palabras )
  • Descarga(s) : 0
  • Publicado : 24 de noviembre de 2010
Leer documento completo
Vista previa del texto
Q Q Q Q Q Q Q Q
E||--------------------12----|--------------------------|
B||--10----12----13----------|--13----12----10----12----|
G||--------------------------|--------------------------|
D||--------------------------|--------------------------|A||--------------------------|--------------------------|
E||--------------------------|--------------------------|


Q Q Q Q Q Q Q Q Q
--------12----------------|--------------------12----|--12----|-------|
--13----------13----12----|--10----12----13----------|--------|-------|--------------------------|--------------------------|--------|-------|
--------------------------|--------------------------|--------|-------|
--------------------------|--------------------------|--------|-------|
--------------------------|--------------------------|--------|-------|Q Q Q Q Q Q Q Q
--------------------12----|--------------------------|
--------10----12----------|--12----10----------10----|
--12----------------------|--------------12----------|
--------------------------|--------------------------|--------------------------|--------------------------|
--------------------------|--------------------------|


Q Q Q Q Q Q Q Q Q
--------12----------------|--------------------12----|--12----|
--12----------12----10----|--------10----12----------|--------|--------------------------|--12----------------------|--------|
--------------------------|--------------------------|--------|
--------------------------|--------------------------|--------|
--------------------------|--------------------------|--------|


Q Q Q Q Q Q Q Q--------11----12----14----|--12----11----------11----|
--12----------------------|--------------12----------|
--------------------------|--------------------------|
--------------------------|--------------------------|
--------------------------|--------------------------|--------------------------|--------------------------|


Q Q Q Q Q Q Q Q
--12----14----12----11----|--------11----12----14----|
--------------------------|--12----------------------|
--------------------------|--------------------------|--------------------------|--------------------------|
--------------------------|--------------------------|
--------------------------|--------------------------|





Q Q Q Q Q Q Q Q
--14----------------------|--------------------------|--------12----13----12----|--10----12----10----------|
--------------------------|--------------------12----|
--------------------------|--------------------------|
--------------------------|--------------------------|
--------------------------|--------------------------|


Q...
tracking img